  0
SECTION
  2
HEADER
  9
$ACADVER
  1
AC1009
  9
$INSBASE
 10
0.0
 20
0.0
 30
0.0
  9
$EXTMIN
 10
-260.02197097989512
 20
-399.89220955822299
 30
-0.0015258207003583
  9
$EXTMAX
 10
460.0219743326561
 20
670.62804802803294
 30
0.0000000349246037
  9
$LIMMIN
 10
0.0
 20
0.0
  9
$LIMMAX
 10
0.0
 20
0.0
  9
$ORTHOMODE
 70
     0
  9
$REGENMODE
 70
     1
  9
$FILLMODE
 70
     1
  9
$QTEXTMODE
 70
     0
  9
$MIRRTEXT
 70
     1
  9
$DRAGMODE
 70
     2
  9
$LTSCALE
 40
20.32
  9
$OSMODE
 70
   231
  9
$ATTMODE
 70
     1
  9
$TEXTSIZE
 40
0.0
  9
$TRACEWID
 40
1.0
  9
$TEXTSTYLE
  7
STANDARD
  9
$CLAYER
  8
DATA
  9
$CELTYPE
  6
BYLAYER
  9
$CECOLOR
 62
   256
  9
$DIMSCALE
 40
1.0
  9
$DIMASZ
 40
0.18
  9
$DIMEXO
 40
0.0625
  9
$DIMDLI
 40
0.38
  9
$DIMRND
 40
0.0
  9
$DIMDLE
 40
0.0
  9
$DIMEXE
 40
0.18
  9
$DIMTP
 40
0.0
  9
$DIMTM
 40
0.0
  9
$DIMTXT
 40
0.18
  9
$DIMCEN
 40
0.09
  9
$DIMTSZ
 40
0.0
  9
$DIMTOL
 70
     0
  9
$DIMLIM
 70
     0
  9
$DIMTIH
 70
     1
  9
$DIMTOH
 70
     1
  9
$DIMSE1
 70
     0
  9
$DIMSE2
 70
     0
  9
$DIMTAD
 70
     0
  9
$DIMZIN
 70
     0
  9
$DIMBLK
  1

  9
$DIMASO
 70
     1
  9
$DIMSHO
 70
     1
  9
$DIMPOST
  1

  9
$DIMAPOST
  1

  9
$DIMALT
 70
     0
  9
$DIMALTD
 70
     2
  9
$DIMALTF
 40
25.399999999999999
  9
$DIMLFAC
 40
1.0
  9
$DIMTOFL
 70
     0
  9
$DIMTVP
 40
0.0
  9
$DIMTIX
 70
     0
  9
$DIMSOXD
 70
     0
  9
$DIMSAH
 70
     0
  9
$DIMBLK1
  1

  9
$DIMBLK2
  1

  9
$DIMSTYLE
  2
STANDARD
  9
$DIMCLRD
 70
     0
  9
$DIMCLRE
 70
     0
  9
$DIMCLRT
 70
     0
  9
$DIMTFAC
 40
1.0
  9
$DIMGAP
 40
0.09
  9
$LUNITS
 70
     2
  9
$LUPREC
 70
     4
  9
$SKETCHINC
 40
0.1
  9
$FILLETRAD
 40
0.0
  9
$AUNITS
 70
     0
  9
$AUPREC
 70
     0
  9
$MENU
  1
acad
  9
$ELEVATION
 40
0.0
  9
$PELEVATION
 40
0.0
  9
$THICKNESS
 40
0.0
  9
$LIMCHECK
 70
     0
  9
$BLIPMODE
 70
     0
  9
$CHAMFERA
 40
0.0
  9
$CHAMFERB
 40
0.0
  9
$SKPOLY
 70
     0
  9
$TDCREATE
 40
2455092.6668518521
  9
$TDUPDATE
 40
2455092.6804456022
  9
$TDINDWG
 40
0.0002429861
  9
$TDUSRTIMER
 40
0.0002429861
  9
$USRTIMER
 70
     1
  9
$ANGBASE
 50
0.0
  9
$ANGDIR
 70
     0
  9
$PDMODE
 70
     1
  9
$PDSIZE
 40
-2.0
  9
$PLINEWID
 40
0.0
  9
$COORDS
 70
     0
  9
$SPLFRAME
 70
     0
  9
$SPLINETYPE
 70
     6
  9
$SPLINESEGS
 70
     8
  9
$ATTDIA
 70
     0
  9
$ATTREQ
 70
     1
  9
$HANDLING
 70
     1
  9
$HANDSEED
  5
2E8
  9
$SURFTAB1
 70
     6
  9
$SURFTAB2
 70
     6
  9
$SURFTYPE
 70
     6
  9
$SURFU
 70
     6
  9
$SURFV
 70
     6
  9
$UCSNAME
  2

  9
$UCSORG
 10
0.0
 20
0.0
 30
0.0
  9
$UCSXDIR
 10
1.0
 20
0.0
 30
0.0
  9
$UCSYDIR
 10
0.0
 20
1.0
 30
0.0
  9
$PUCSNAME
  2

  9
$PUCSORG
 10
0.0
 20
0.0
 30
0.0
  9
$PUCSXDIR
 10
1.0
 20
0.0
 30
0.0
  9
$PUCSYDIR
 10
0.0
 20
1.0
 30
0.0
  9
$USERI1
 70
     0
  9
$USERI2
 70
     0
  9
$USERI3
 70
     0
  9
$USERI4
 70
     0
  9
$USERI5
 70
     0
  9
$USERR1
 40
0.0
  9
$USERR2
 40
0.0
  9
$USERR3
 40
0.0
  9
$USERR4
 40
0.0
  9
$USERR5
 40
0.0
  9
$WORLDVIEW
 70
     1
  9
$SHADEDGE
 70
     3
  9
$SHADEDIF
 70
    70
  9
$TILEMODE
 70
     1
  9
$MAXACTVP
 70
    64
  9
$PLIMCHECK
 70
     0
  9
$PEXTMIN
 10
1.0000000000000000E+020
 20
1.0000000000000000E+020
 30
1.0000000000000000E+020
  9
$PEXTMAX
 10
-1.0000000000000000E+020
 20
-1.0000000000000000E+020
 30
-1.0000000000000000E+020
  9
$PLIMMIN
 10
0.0
 20
0.0
  9
$PLIMMAX
 10
12.0
 20
9.0
  9
$UNITMODE
 70
     0
  9
$VISRETAIN
 70
     0
  9
$PLINEGEN
 70
     1
  9
$PSLTSCALE
 70
     0
  0
ENDSEC
  0
SECTION
  2
TABLES
  0
TABLE
  2
VPORT
 70
     1
  0
VPORT
  2
*ACTIVE
 70
     0
 10
0.0
 20
0.0
 11
1.0
 21
1.0
 12
100.00000167638051
 22
135.367919234905
 13
0.0
 23
0.0
 14
1.0
 24
1.0
 15
0.0
 25
0.0
 16
0.0
 26
0.0
 36
1.0
 17
0.0
 27
0.0
 37
0.0
 40
1078.4992905620541
 41
1.9863184079601981
 42
50.0
 43
0.0
 44
0.0
 50
0.0
 51
0.0
 71
     0
 72
  2000
 73
     1
 74
     1
 75
     0
 76
     0
 77
     0
 78
     0
  0
ENDTAB
  0
TABLE
  2
LTYPE
 70
    11
  0
LTYPE
  2
CONTINUOUS
 70
     0
  3
Solid line
 72
    65
 73
     0
 40
0.0
  0
LTYPE
  2
STYLE_06
 70
     0
  3

 72
    65
 73
     4
 40
1.0416412353515621
 49
0.625
 49
-0.208282470703125
 49
0.069427490234375
 49
-0.1389312744140625
  0
ENDTAB
  0
TABLE
  2
LAYER
 70
     5
  0
LAYER
  2
0
 70
     0
 62
     7
  6
CONTINUOUS
  0
LAYER
  2
DATA
 70
     0
 62
     7
  6
CONTINUOUS
  0
LAYER
  2
HIBINO-BASE
 70
     0
 62
     7
  6
CONTINUOUS
  0
LAYER
  2
SPEC
 70
     0
 62
     7
  6
CONTINUOUS
  0
LAYER
  2
DIMNSIONS
 70
     0
 62
     7
  6
CONTINUOUS
  0
ENDTAB
  0
TABLE
  2
STYLE
 70
     3
  0
STYLE
  2
STANDARD
 70
     0
 40
0.0
 41
1.0
 50
0.0
 71
     0
 42
0.0
  3
txt
  4
BIGFONT.SHX
  0
ENDTAB
  0
TABLE
  2
VIEW
 70
     0
  0
ENDTAB
  0
TABLE
  2
UCS
 70
     0
  0
ENDTAB
  0
TABLE
  2
APPID
 70
     3
  0
APPID
  2
ACAD
 70
     0
  0
APPID
  2
ACADANNOTATIVE
 70
     0
  0
APPID
  2
ACAD_MLEADERVER
 70
     0
  0
ENDTAB
  0
TABLE
  2
DIMSTYLE
 70
     2
  0
DIMSTYLE
  2
STANDARD
 70
     0
  3

  4

  5

  6

  7

 40
1.0
 41
0.18
 42
0.0625
 43
0.38
 44
0.18
 45
0.0
 46
0.0
 47
0.0
 48
0.0
140
0.18
141
0.09
142
0.0
143
25.399999999999999
144
1.0
145
0.0
146
1.0
147
0.09
 71
     0
 72
     0
 73
     1
 74
     1
 75
     0
 76
     0
 77
     0
 78
     0
170
     0
171
     2
172
     0
173
     0
174
     0
175
     0
176
     0
177
     0
178
     0
  0
ENDTAB
  0
ENDSEC
  0
SECTION
  2
BLOCKS
  0
BLOCK
  8
0
  2
$MODEL_SPACE
 70
     0
 10
0.0
 20
0.0
 30
0.0
  3
$MODEL_SPACE
  1

  0
ENDBLK
  5
282
  8
0
  0
BLOCK
 67
     1
  8
0
  2
$PAPER_SPACE
 70
     0
 10
0.0
 20
0.0
 30
0.0
  3
$PAPER_SPACE
  1

  0
ENDBLK
  5
27E
 67
     1
  8
0
  0
ENDSEC
  0
SECTION
  2
ENTITIES
  0
LINE
  5
2C
  8
HIBINO-BASE
  6
CONTINUOUS
 62
     7
 10
-260.0
 20
670.59544499999981
 30
0.0
 11
460.0
 21
670.59544499999981
 31
0.0
  0
LINE
  5
2D
  8
HIBINO-BASE
  6
CONTINUOUS
 62
     7
 10
460.0
 20
-369.40455500000002
 30
0.0
 11
-260.0
 21
-369.40455500000002
 31
0.0
  0
LINE
  5
2E
  8
HIBINO-BASE
  6
CONTINUOUS
 62
     7
 10
-260.0
 20
-369.40455500000002
 30
0.0
 11
-260.0
 21
670.59544499999981
 31
0.0
  0
TEXT
  5
2F
  8
HIBINO-BASE
 62
     7
 10
-231.26400000000001
 20
-395.03926619999982
 30
0.0
 40
14.40017671875
  1
Hibino Corporation
 41
0.7
 11
-231.26400000000001
 21
-380.63908948124981
 31
0.0
 73
     3
  0
LINE
  5
30
  8
HIBINO-BASE
  6
CONTINUOUS
 62
     7
 10
460.0
 20
670.59544499999981
 30
0.0
 11
460.0
 21
-369.40455500000002
 31
0.0
  0
LINE
  5
31
  8
HIBINO-BASE
  6
CONTINUOUS
 62
     7
 10
100.0
 20
-279.40455500000002
 30
0.0
 11
460.0
 21
-279.40455500000002
 31
0.0
  0
LINE
  5
32
  8
HIBINO-BASE
  6
CONTINUOUS
 62
     7
 10
100.0
 20
-369.40455500000002
 30
0.0
 11
100.0
 21
-279.40455500000002
 31
0.0
  0
TEXT
  5
33
  8
HIBINO-BASE
 62
     7
 10
103.59999999999999
 20
-289.43932833333332
 30
0.0
 40
6.5153645833333318
  1
NOTE
 41
0.7
 11
103.59999999999999
 21
-282.92396374999998
 31
0.0
 73
     3
  0
LINE
  5
34
  8
HIBINO-BASE
  6
CONTINUOUS
 62
     7
 10
240.0
 20
-369.40455500000002
 30
0.0
 11
240.0
 21
-279.40455500000002
 31
0.0
  0
TEXT
  5
35
  8
HIBINO-BASE
 62
     7
 10
243.59999999999999
 20
-289.43932833333332
 30
0.0
 40
6.5153645833333318
  1
TITLE
 41
0.7
 11
243.59999999999999
 21
-282.92396374999998
 31
0.0
 73
     3
  0
TEXT
  5
36
  8
HIBINO-BASE
 62
     7
 10
300.27355999999997
 20
-395.03926619999982
 30
0.0
 40
14.40017671875
  1
ヒビノ株式会社
 41
0.7
 11
300.27355999999997
 21
-380.63908948124981
 31
0.0
 73
     3
  0
LINE
  5
37
  8
HIBINO-BASE
  6
CONTINUOUS
 62
     7
 10
100.0
 20
-329.40455500000002
 30
0.0
 11
460.0
 21
-329.40455500000002
 31
0.0
  0
TEXT
  5
38
  8
HIBINO-BASE
 62
     7
 10
293.60000000000002
 20
-339.21404833333332
 30
0.0
 40
6.5153645833333318
  1
DRAWN
 41
0.7
 11
293.60000000000002
 21
-332.69868374999999
 31
0.0
 73
     3
  0
TEXT
  5
39
  8
HIBINO-BASE
 62
     7
 10
193.59999999999999
 20
-339.21404833333332
 30
0.0
 40
6.5153645833333318
  1
DATE
 41
0.7
 11
193.59999999999999
 21
-332.69868374999999
 31
0.0
 73
     3
  0
TEXT
  5
3A
  8
HIBINO-BASE
 62
     7
 10
153.59999999999991
 20
-339.21404833333332
 30
0.0
 40
6.5153645833333318
  1
SCALE
 41
0.7
 11
153.59999999999991
 21
-332.69868374999999
 31
0.0
 73
     3
  0
TEXT
  5
3B
  8
HIBINO-BASE
 62
     7
 10
243.59999999999999
 20
-339.21404833333332
 30
0.0
 40
6.5153645833333318
  1
DESIGN
 41
0.7
 11
243.59999999999999
 21
-332.69868374999999
 31
0.0
 73
     3
  0
TEXT
  5
3C
  8
HIBINO-BASE
 62
     7
 10
393.60000000000002
 20
-339.21404833333332
 30
0.0
 40
6.5153645833333318
  1
DRAWING NO.
 41
0.7
 11
393.60000000000002
 21
-332.69868374999999
 31
0.0
 73
     3
  0
TEXT
  5
3D
  8
HIBINO-BASE
 62
     7
 10
343.60000000000002
 20
-339.21404833333332
 30
0.0
 40
6.5153645833333318
  1
CHECK
 41
0.7
 11
343.60000000000002
 21
-332.69868374999999
 31
0.0
 73
     3
  0
LINE
  5
3E
  8
HIBINO-BASE
  6
CONTINUOUS
 62
     7
 10
157.5
 20
-364.40455500000002
 30
0.0
 11
172.5
 21
-349.40455500000002
 31
0.0
  0
TEXT
  5
3F
  8
HIBINO-BASE
 62
     7
 10
155.0
 20
-353.84032833333328
 30
0.0
 40
6.5153645833333318
  1
1
 41
0.7
 11
155.0
 21
-347.32496374999999
 31
0.0
 73
     3
  0
LINE
  5
40
  8
HIBINO-BASE
  6
CONTINUOUS
 62
     7
 10
150.0
 20
-369.40455500000002
 30
0.0
 11
150.0
 21
-329.40455500000002
 31
0.0
  0
LINE
  5
41
  8
HIBINO-BASE
  6
CONTINUOUS
 62
     7
 10
190.0
 20
-369.40455500000002
 30
0.0
 11
190.0
 21
-329.40455500000002
 31
0.0
  0
LINE
  5
42
  8
HIBINO-BASE
  6
CONTINUOUS
 62
     7
 10
290.0
 20
-329.40455500000002
 30
0.0
 11
290.0
 21
-369.40455500000002
 31
0.0
  0
LINE
  5
43
  8
HIBINO-BASE
  6
CONTINUOUS
 62
     7
 10
390.0
 20
-329.40455500000002
 30
0.0
 11
390.0
 21
-369.40455500000002
 31
0.0
  0
LINE
  5
44
  8
HIBINO-BASE
  6
CONTINUOUS
 62
     7
 10
339.99999999999989
 20
-369.40455500000002
 30
0.0
 11
339.99999999999989
 21
-329.40455500000002
 31
0.0
  0
TEXT
  5
45
  8
HIBINO-BASE
 62
     7
 10
193.42616000000001
 20
-357.9499683333334
 30
0.0
 40
6.5153645833333318
  1
'09.09.
 41
0.7
 11
193.42616000000001
 21
-351.43460375000001
 31
0.0
 73
     3
  0
TEXT
  5
46
  8
HIBINO-BASE
 62
     7
 10
170.0
 20
-361.34032833333339
 30
0.0
 40
6.5153645833333318
  1
4
 41
0.7
 11
170.0
 21
-354.82496374999999
 31
0.0
 73
     3
  0
TEXT
  5
47
  8
HIBINO-BASE
 62
     7
 10
296.0232400441385
 20
-357.9499683333334
 30
0.0
 40
6.5153645833333318
  1
N.Sasaki
 41
0.7
 11
296.0232400441385
 21
-351.43460375000001
 31
0.0
 73
     3
  0
TEXT
  5
48
  8
HIBINO-BASE
 62
     7
 10
115.5333333333334
 20
-361.50055500000002
 30
0.0
 40
13.03072916666666
  1
A4
 41
0.7
 11
115.5333333333334
 21
-348.46982583333329
 31
0.0
 73
     3
  0
TEXT
  5
49
  8
HIBINO-BASE
 62
     7
 10
103.8333333333333
 20
-339.88237500000002
 30
0.0
 40
6.5153645833333318
  1
PAPER SIZE
 41
0.7
 11
103.8333333333333
 21
-333.36701041666657
 31
0.0
 73
     3
  0
LINE
  5
4A
  8
SPEC
  6
CONTINUOUS
 62
     7
 10
-230.0
 20
630.5954449999997
 30
0.0
 11
360.0
 21
630.5954449999997
 31
0.0
  0
LINE
  5
4B
  8
SPEC
  6
CONTINUOUS
 62
     7
 10
-230.0
 20
615.59544499999981
 30
0.0
 11
360.0
 21
615.59544499999981
 31
0.0
  0
LINE
  5
4C
  8
SPEC
  6
CONTINUOUS
 62
     7
 10
-230.0
 20
555.59544499999993
 30
0.0
 11
360.0
 21
555.59544499999993
 31
0.0
  0
LINE
  5
4D
  8
SPEC
  6
CONTINUOUS
 62
     7
 10
-230.0
 20
570.59544499999981
 30
0.0
 11
360.0
 21
570.59544499999981
 31
0.0
  0
LINE
  5
4E
  8
SPEC
  6
CONTINUOUS
 62
     7
 10
-230.0
 20
585.5954449999997
 30
0.0
 11
360.0
 21
585.5954449999997
 31
0.0
  0
LINE
  5
4F
  8
SPEC
  6
CONTINUOUS
 62
     7
 10
-230.0
 20
540.59544499999993
 30
0.0
 11
360.0
 21
540.59544499999993
 31
0.0
  0
LINE
  5
50
  8
SPEC
  6
CONTINUOUS
 62
     7
 10
-230.0
 20
510.59544499999993
 30
0.0
 11
360.0
 21
510.59544499999993
 31
0.0
  0
LINE
  5
51
  8
SPEC
  6
CONTINUOUS
 62
     7
 10
-230.0
 20
525.59544499999993
 30
0.0
 11
360.0
 21
525.59544499999993
 31
0.0
  0
LINE
  5
52
  8
SPEC
  6
CONTINUOUS
 62
     7
 10
-230.0
 20
600.59544499999981
 30
0.0
 11
360.0
 21
600.59544499999981
 31
0.0
  0
TEXT
  5
53
  8
SPEC
 62
     7
 10
-96.518948515744
 20
619.28239972084805
 30
0.0
 40
7.6012449999999978
  1
オン/オフスイッチ搭載グースネック
 41
0.7
 11
-96.518948515744
 21
626.883644720848
 31
0.0
 73
     3
  0
LINE
  5
54
  8
SPEC
  6
CONTINUOUS
 62
     7
 10
-230.0
 20
630.5954449999997
 30
0.0
 11
-230.0
 21
510.59544499999993
 31
0.0
  0
TEXT
  5
55
  8
SPEC
 62
     7
 10
-225.0
 20
636.16852499999982
 30
0.0
 40
9.7730468750000004
  1
仕様
 41
0.7
 11
-225.0
 21
645.94157187499979
 31
0.0
 73
     3
  0
LINE
  5
56
  8
SPEC
  6
CONTINUOUS
 62
     7
 10
-100.0
 20
630.5954449999997
 30
0.0
 11
-100.0
 21
510.59544499999993
 31
0.0
  0
LINE
  5
57
  8
SPEC
  6
CONTINUOUS
 62
     7
 10
360.0
 20
630.5954449999997
 30
0.0
 11
360.0
 21
510.59544499999993
 31
0.0
  0
TEXT
  5
58
  8
SPEC
 62
     7
 10
-226.64472446165999
 20
619.22628940417883
 30
0.0
 40
7.6012449999999978
  1
形式
 41
0.7
 11
-226.64472446165999
 21
626.82753440417866
 31
0.0
 73
     3
  0
TEXT
  5
59
  8
SPEC
 62
     7
 10
-227.9431699778535
 20
604.35856635144205
 30
0.0
 40
7.6012449999999978
  1
ローカットフィルター
 41
0.7
 11
-227.9431699778535
 21
611.959811351442
 31
0.0
 73
     3
  0
TEXT
  5
5A
  8
SPEC
 62
     7
 10
-226.921159320138
 20
589.50882579097095
 30
0.0
 40
7.6012449999999978
  1
インピーダンス
 41
0.7
 11
-226.921159320138
 21
597.11007079097089
 31
0.0
 73
     3
  0
TEXT
  5
5B
  8
SPEC
 62
     7
 10
-96.50498508761828
 20
589.32454938189971
 30
0.0
 40
7.6012449999999978
  1
600\U+03A9以下
 41
0.7
 11
-96.50498508761828
 21
596.92579438189955
 31
0.0
 73
     3
  0
TEXT
  5
5C
  8
SPEC
 62
     7
 10
-96.452575306971383
 20
604.29917212319901
 30
0.0
 40
7.6012449999999978
  1
200Hz(6dB/oct）＊ジャンパーで設定
 41
0.7
 11
-96.452575306971383
 21
611.90041712319885
 31
0.0
 73
     3
  0
TEXT
  5
5D
  8
SPEC
 62
     7
 10
-226.68018249534111
 20
574.34752246144524
 30
0.0
 40
7.6012449999999978
  1
電源
 41
0.7
 11
-226.68018249534111
 21
581.94876746144507
 31
0.0
 73
     3
  0
TEXT
  5
5E
  8
SPEC
 62
     7
 10
-97.563934132443535
 20
574.69280672928835
 30
0.0
 40
7.6012449999999978
  1
ファンタム　DC9～52V/3.5mA以下
 41
0.7
 11
-97.563934132443535
 21
582.29405172928841
 31
0.0
 73
     3
  0
TEXT
  5
5F
  8
SPEC
 62
     7
 10
-227.47900268471699
 20
559.5863557103354
 30
0.0
 40
7.6012449999999978
  1
コネクター
 41
0.7
 11
-227.47900268471699
 21
567.18760071033535
 31
0.0
 73
     3
  0
TEXT
  5
60
  8
SPEC
 62
     7
 10
-96.164712075479187
 20
559.10006328678151
 30
0.0
 40
7.6012449999999978
  1
XLR3ピン　オス
 41
0.7
 11
-96.164712075479187
 21
566.70130828678145
 31
0.0
 73
     3
  0
TEXT
  5
61
  8
SPEC
 62
     7
 10
-226.7187687175356
 20
544.61827553734804
 30
0.0
 40
7.6012586805555546
  1
寸法
 41
0.7
 11
-226.7187687175356
 21
552.21953421790363
 31
0.0
 73
     3
  0
TEXT
  5
62
  8
SPEC
 62
     7
 10
-226.59878289645471
 20
529.91969857274739
 30
0.0
 40
7.6012586805555546
  1
重量
 41
0.7
 11
-226.59878289645471
 21
537.52095725330298
 31
0.0
 73
     3
  0
TEXT
  5
63
  8
SPEC
 62
     7
 10
-97.496922713347871
 20
544.46195791376908
 30
0.0
 40
7.6012586805555546
  1
\U+03A619\U+00D7405mm(突起部含まず)
 41
0.7
 11
-97.496922713347871
 21
552.06321659432467
 31
0.0
 73
     3
  0
TEXT
  5
64
  8
SPEC
 62
     7
 10
-96.534906165543504
 20
529.71276752844199
 30
0.0
 40
7.6012586805555546
  1
約190g 、 PS 3 F-LOCK：約56ｇ
 41
0.7
 11
-96.534906165543504
 21
537.31402620899757
 31
0.0
 73
     3
  0
TEXT
  5
65
  8
SPEC
 62
     7
 10
-96.1993052695872
 20
514.5196898750404
 30
0.0
 40
7.6012586805555546
  1
XLRコネクタ ー用埋込パーツ(PS 3 F-LOCK)
 41
0.7
 11
-96.1993052695872
 21
522.12094855559587
 31
0.0
 73
     3
  0
TEXT
  5
66
  8
SPEC
 62
     7
 10
-226.42277455158069
 20
514.99301673414686
 30
0.0
 40
7.6012586805555546
  1
付属品
 41
0.7
 11
-226.42277455158069
 21
522.59427541470245
 31
0.0
 73
     3
  0
TEXT
  5
67
  8
DIMNSIONS
 62
     7
 10
19.999999999999979
 20
-320.326595
 30
0.0
 40
9.7730468750000004
  1
(単位：mm)
 41
0.7
 11
19.999999999999979
 21
-310.55354812500002
 31
0.0
 73
     3
  0
LINE
  5
68
  8
DIMNSIONS
  6
CONTINUOUS
 62
     7
 10
-114.25
 20
-6.25
 30
0.0
 11
-176.75
 21
-6.25
 31
0.0
  0
LINE
  5
69
  8
DIMNSIONS
  6
CONTINUOUS
 62
     7
 10
-111.59999999999999
 20
398.75
 30
0.0
 11
-176.75
 21
398.75
 31
0.0
  0
LINE
  5
6A
  8
DIMNSIONS
  6
CONTINUOUS
 62
     7
 10
-168.75
 20
-6.25
 30
0.0
 11
-168.75
 21
398.75
 31
0.0
  0
LINE
  5
6B
  8
DIMNSIONS
  6
CONTINUOUS
 62
     7
 10
-168.75
 20
-6.25
 30
0.0
 11
-171.43015918060101
 21
3.7524902343749882
 31
0.0
  0
LINE
  5
6C
  8
DIMNSIONS
  6
CONTINUOUS
 62
     7
 10
-168.75
 20
-6.25
 30
0.0
 11
-166.06984081939899
 21
3.7524902343749882
 31
0.0
  0
LINE
  5
6D
  8
DIMNSIONS
  6
CONTINUOUS
 62
     7
 10
-168.75
 20
398.75
 30
0.0
 11
-166.06984081939899
 21
388.7475097656249
 31
0.0
  0
LINE
  5
6E
  8
DIMNSIONS
  6
CONTINUOUS
 62
     7
 10
-168.75
 20
398.75
 30
0.0
 11
-171.43015918060101
 21
388.7475097656249
 31
0.0
  0
TEXT
  5
6F
  8
DIMNSIONS
 62
     7
 10
-172.7255555555555
 20
185.6666666666666
 30
0.0
 40
10.85894097222222
  1
405
 50
90.0
 41
0.7
 11
-183.5844965277777
 21
185.6666666666666
 31
0.0
 73
     3
  0
LINE
  5
70
  8
DIMNSIONS
  6
CONTINUOUS
 62
     7
 10
-104.75
 20
-49.999999999639641
 30
0.0
 11
-176.75
 21
-49.999999999639641
 31
0.0
  0
LINE
  5
71
  8
DIMNSIONS
  6
CONTINUOUS
 62
     7
 10
-104.75
 20
-28.999999999639641
 30
0.0
 11
-176.75
 21
-28.999999999639641
 31
0.0
  0
LINE
  5
72
  8
DIMNSIONS
  6
CONTINUOUS
 62
     7
 10
-168.75
 20
-28.999999999639641
 30
0.0
 11
-168.75
 21
-49.999999999639641
 31
0.0
  0
LINE
  5
73
  8
DIMNSIONS
  6
CONTINUOUS
 62
     7
 10
-168.75
 20
-49.999999999639641
 30
0.0
 11
-168.75
 21
-69.999999999639641
 31
0.0
  0
LINE
  5
74
  8
DIMNSIONS
  6
CONTINUOUS
 62
     7
 10
-168.75
 20
-49.999999999639641
 30
0.0
 11
-166.06984081939899
 21
-60.002490234014637
 31
0.0
  0
LINE
  5
75
  8
DIMNSIONS
  6
CONTINUOUS
 62
     7
 10
-168.75
 20
-49.999999999639641
 30
0.0
 11
-171.43015918060101
 21
-60.002490234014637
 31
0.0
  0
LINE
  5
76
  8
DIMNSIONS
  6
CONTINUOUS
 62
     7
 10
-168.75
 20
-28.999999999639641
 30
0.0
 11
-168.75
 21
-8.9999999996396411
 31
0.0
  0
LINE
  5
77
  8
DIMNSIONS
  6
CONTINUOUS
 62
     7
 10
-168.75
 20
-28.999999999639641
 30
0.0
 11
-171.43015918060101
 21
-18.997509765264649
 31
0.0
  0
LINE
  5
78
  8
DIMNSIONS
  6
CONTINUOUS
 62
     7
 10
-168.75
 20
-28.999999999639641
 30
0.0
 11
-166.06984081939899
 21
-18.997509765264649
 31
0.0
  0
TEXT
  5
79
  8
DIMNSIONS
 62
     7
 10
-172.7255555555555
 20
-46.555555555195177
 30
0.0
 40
10.85894097222222
  1
21
 50
90.0
 41
0.7
 11
-183.5844965277777
 21
-46.555555555195177
 31
0.0
 73
     3
  0
LINE
  5
7A
  8
DIMNSIONS
  6
CONTINUOUS
 62
     7
 10
-91.665459451017398
 20
-32.475197983034519
 30
0.0
 11
-81.100000000000023
 21
-15.799999999639651
 31
0.0
  0
LINE
  5
7B
  8
DIMNSIONS
  6
CONTINUOUS
 62
     7
 10
-91.665459451017398
 20
-32.475197983034519
 30
0.0
 11
-88.465483444198924
 21
-22.626684507493511
 31
0.0
  0
LINE
  5
7C
  8
DIMNSIONS
  6
CONTINUOUS
 62
     7
 10
-91.665459451017398
 20
-32.475197983034519
 30
0.0
 11
-83.969942199841398
 21
-25.546123127111851
 31
0.0
  0
LINE
  5
7D
  8
DIMNSIONS
  6
CONTINUOUS
 62
     7
 10
-81.100000000000023
 20
-15.799999999639651
 30
0.0
 11
-44.87777777777778
 21
-15.799999999639651
 31
0.0
  0
TEXT
  5
7E
  8
DIMNSIONS
 62
     7
 10
-73.100000000000023
 20
-11.82444444408409
 30
0.0
 40
10.85894097222222
  1
\U+03C619
 41
0.7
 11
-73.100000000000023
 21
-0.9655034718618653
 31
0.0
 73
     3
  0
LINE
  5
7F
  8
DIMNSIONS
  6
CONTINUOUS
 62
     7
 10
-127.25
 20
-133.25
 30
0.0
 11
-151.75
 21
-133.25
 31
0.0
  0
LINE
  5
80
  8
DIMNSIONS
  6
CONTINUOUS
 62
     7
 10
-127.25
 20
-131.25
 30
0.0
 11
-151.75
 21
-131.25
 31
0.0
  0
LINE
  5
81
  8
DIMNSIONS
  6
CONTINUOUS
 62
     7
 10
-143.75
 20
-131.25
 30
0.0
 11
-143.75
 21
-133.25
 31
0.0
  0
LINE
  5
82
  8
DIMNSIONS
  6
CONTINUOUS
 62
     7
 10
-143.75
 20
-133.25
 30
0.0
 11
-143.75
 21
-152.80555555555549
 31
0.0
  0
LINE
  5
83
  8
DIMNSIONS
  6
CONTINUOUS
 62
     7
 10
-143.75
 20
-133.25
 30
0.0
 11
-141.06984081939899
 21
-143.25249023437499
 31
0.0
  0
LINE
  5
84
  8
DIMNSIONS
  6
CONTINUOUS
 62
     7
 10
-143.75
 20
-133.25
 30
0.0
 11
-146.43015918060101
 21
-143.25249023437499
 31
0.0
  0
LINE
  5
85
  8
DIMNSIONS
  6
CONTINUOUS
 62
     7
 10
-143.75
 20
-131.25
 30
0.0
 11
-143.75
 21
-111.25
 31
0.0
  0
LINE
  5
86
  8
DIMNSIONS
  6
CONTINUOUS
 62
     7
 10
-143.75
 20
-131.25
 30
0.0
 11
-146.43015918060101
 21
-121.247509765625
 31
0.0
  0
LINE
  5
87
  8
DIMNSIONS
  6
CONTINUOUS
 62
     7
 10
-143.75
 20
-131.25
 30
0.0
 11
-141.06984081939899
 21
-121.247509765625
 31
0.0
  0
TEXT
  5
88
  8
DIMNSIONS
 62
     7
 10
-147.72555555555539
 20
-152.80555555555549
 30
0.0
 40
10.85894097222222
  1
2
 50
90.0
 41
0.7
 11
-158.5844965277777
 21
-152.80555555555549
 31
0.0
 73
     3
  0
LINE
  5
89
  8
DIMNSIONS
  6
CONTINUOUS
 62
     7
 10
-127.25
 20
-131.25
 30
0.0
 11
-151.75
 21
-131.25
 31
0.0
  0
LINE
  5
8A
  8
DIMNSIONS
  6
CONTINUOUS
 62
     7
 10
-112.59999999999999
 20
-98.250000000000014
 30
0.0
 11
-151.75
 21
-98.250000000000014
 31
0.0
  0
LINE
  5
8B
  8
DIMNSIONS
  6
CONTINUOUS
 62
     7
 10
-143.75
 20
-131.25
 30
0.0
 11
-143.75
 21
-98.250000000000014
 31
0.0
  0
LINE
  5
8C
  8
DIMNSIONS
  6
CONTINUOUS
 62
     7
 10
-143.75
 20
-131.25
 30
0.0
 11
-146.43015918060101
 21
-121.247509765625
 31
0.0
  0
LINE
  5
8D
  8
DIMNSIONS
  6
CONTINUOUS
 62
     7
 10
-143.75
 20
-131.25
 30
0.0
 11
-141.06984081939899
 21
-121.247509765625
 31
0.0
  0
LINE
  5
8E
  8
DIMNSIONS
  6
CONTINUOUS
 62
     7
 10
-143.75
 20
-98.250000000000014
 30
0.0
 11
-141.06984081939899
 21
-108.252490234375
 31
0.0
  0
LINE
  5
8F
  8
DIMNSIONS
  6
CONTINUOUS
 62
     7
 10
-143.75
 20
-98.250000000000014
 30
0.0
 11
-146.43015918060101
 21
-108.252490234375
 31
0.0
  0
TEXT
  5
90
  8
DIMNSIONS
 62
     7
 10
-147.72555555555539
 20
-121.8055555555555
 30
0.0
 40
10.85894097222222
  1
33
 50
90.0
 41
0.7
 11
-158.5844965277777
 21
-121.8055555555555
 31
0.0
 73
     3
  0
LINE
  5
91
  8
DIMNSIONS
  6
CONTINUOUS
 62
     7
 10
-109.65000000000001
 20
-168.75
 30
0.0
 11
-176.75
 21
-168.75
 31
0.0
  0
LINE
  5
92
  8
DIMNSIONS
  6
CONTINUOUS
 62
     7
 10
-112.59999999999999
 20
-98.250000000000014
 30
0.0
 11
-176.75
 21
-98.250000000000014
 31
0.0
  0
LINE
  5
93
  8
DIMNSIONS
  6
CONTINUOUS
 62
     7
 10
-168.75
 20
-168.75
 30
0.0
 11
-168.75
 21
-98.250000000000014
 31
0.0
  0
LINE
  5
94
  8
DIMNSIONS
  6
CONTINUOUS
 62
     7
 10
-168.75
 20
-168.75
 30
0.0
 11
-171.43015918060101
 21
-158.74750976562501
 31
0.0
  0
LINE
  5
95
  8
DIMNSIONS
  6
CONTINUOUS
 62
     7
 10
-168.75
 20
-168.75
 30
0.0
 11
-166.06984081939899
 21
-158.74750976562501
 31
0.0
  0
LINE
  5
96
  8
DIMNSIONS
  6
CONTINUOUS
 62
     7
 10
-168.75
 20
-98.250000000000014
 30
0.0
 11
-166.06984081939899
 21
-108.252490234375
 31
0.0
  0
LINE
  5
97
  8
DIMNSIONS
  6
CONTINUOUS
 62
     7
 10
-168.75
 20
-98.250000000000014
 30
0.0
 11
-171.43015918060101
 21
-108.252490234375
 31
0.0
  0
TEXT
  5
98
  8
DIMNSIONS
 62
     7
 10
-172.7255555555555
 20
-147.61111111111109
 30
0.0
 40
10.85894097222222
  1
70.5
 50
90.0
 41
0.7
 11
-183.5844965277777
 21
-147.61111111111109
 31
0.0
 73
     3
  0
LINE
  5
99
  8
DIMNSIONS
  6
CONTINUOUS
 62
     7
 10
-107.75
 20
-143.44999999999999
 30
0.0
 11
-107.75
 21
-203.75
 31
0.0
  0
LINE
  5
9A
  8
DIMNSIONS
  6
CONTINUOUS
 62
     7
 10
-85.750000000000014
 20
-143.44999999999999
 30
0.0
 11
-85.750000000000014
 21
-203.75
 31
0.0
  0
LINE
  5
9B
  8
DIMNSIONS
  6
CONTINUOUS
 62
     7
 10
-85.750000000000014
 20
-195.75
 30
0.0
 11
-107.75
 21
-195.75
 31
0.0
  0
LINE
  5
9C
  8
DIMNSIONS
  6
CONTINUOUS
 62
     7
 10
-107.75
 20
-195.75
 30
0.0
 11
-127.75
 21
-195.75
 31
0.0
  0
LINE
  5
9D
  8
DIMNSIONS
  6
CONTINUOUS
 62
     7
 10
-107.75
 20
-195.75
 30
0.0
 11
-117.752490234375
 21
-198.43015918060101
 31
0.0
  0
LINE
  5
9E
  8
DIMNSIONS
  6
CONTINUOUS
 62
     7
 10
-107.75
 20
-195.75
 30
0.0
 11
-117.752490234375
 21
-193.06984081939899
 31
0.0
  0
LINE
  5
9F
  8
DIMNSIONS
  6
CONTINUOUS
 62
     7
 10
-85.750000000000014
 20
-195.75
 30
0.0
 11
-65.750000000000014
 21
-195.75
 31
0.0
  0
LINE
  5
A0
  8
DIMNSIONS
  6
CONTINUOUS
 62
     7
 10
-85.750000000000014
 20
-195.75
 30
0.0
 11
-75.747509765625026
 21
-193.06984081939899
 31
0.0
  0
LINE
  5
A1
  8
DIMNSIONS
  6
CONTINUOUS
 62
     7
 10
-85.750000000000014
 20
-195.75
 30
0.0
 11
-75.747509765625026
 21
-198.43015918060101
 31
0.0
  0
TEXT
  5
A2
  8
DIMNSIONS
 62
     7
 10
-103.8055555555555
 20
-191.7744444444445
 30
0.0
 40
10.85894097222222
  1
22
 41
0.7
 11
-103.8055555555555
 21
-180.9155034722223
 31
0.0
 73
     3
  0
LINE
  5
A3
  8
DIMNSIONS
  6
CONTINUOUS
 62
     7
 10
-84.823001647872658
 20
-239.5091356334631
 30
0.0
 11
-64.500000000000014
 21
-207.0
 31
0.0
  0
LINE
  5
A4
  8
DIMNSIONS
  6
CONTINUOUS
 62
     7
 10
-84.823001647872658
 20
-239.5091356334631
 30
0.0
 11
-81.623025641054198
 21
-229.66062215792209
 31
0.0
  0
LINE
  5
A5
  8
DIMNSIONS
  6
CONTINUOUS
 62
     7
 10
-84.823001647872658
 20
-239.5091356334631
 30
0.0
 11
-77.127484396696673
 21
-232.58006077754061
 31
0.0
  0
LINE
  5
A6
  8
DIMNSIONS
  6
CONTINUOUS
 62
     7
 10
-64.500000000000014
 20
-207.0
 30
0.0
 11
-28.277777777777789
 21
-207.0
 31
0.0
  0
TEXT
  5
A7
  8
DIMNSIONS
 62
     7
 10
-56.500000000000021
 20
-203.0244444444445
 30
0.0
 40
10.85894097222222
  1
\U+03C645
 41
0.7
 11
-56.500000000000021
 21
-192.1655034722223
 31
0.0
 73
     3
  0
LINE
  5
A8
  8
DIMNSIONS
  6
CONTINUOUS
 62
     7
 10
-80.49221485149404
 20
-266.1352563028334
 30
0.0
 11
-56.500000000000028
 21
-232.5
 31
0.0
  0
LINE
  5
A9
  8
DIMNSIONS
  6
CONTINUOUS
 62
     7
 10
-80.49221485149404
 20
-266.1352563028334
 30
0.0
 11
-76.781192930265163
 21
-256.46771367700097
 31
0.0
  0
LINE
  5
AA
  8
DIMNSIONS
  6
CONTINUOUS
 62
     7
 10
-80.49221485149404
 20
-266.1352563028334
 30
0.0
 11
-72.444604280792703
 21
-259.61842975730798
 31
0.0
  0
LINE
  5
AB
  8
DIMNSIONS
  6
CONTINUOUS
 62
     7
 10
-56.500000000000028
 20
-232.5
 30
0.0
 11
0.888888888888843
 21
-232.5
 31
0.0
  0
TEXT
  5
AC
  8
DIMNSIONS
 62
     7
 10
-48.500000000000043
 20
-228.5244444444445
 30
0.0
 40
10.85894097222222
  1
3-\U+03C63.2
 41
0.7
 11
-48.500000000000043
 21
-217.6655034722223
 31
0.0
 73
     3
  0
LINE
  5
AD
  8
DIMNSIONS
  6
CONTINUOUS
 62
     7
 10
-114.25
 20
-6.25
 30
0.0
 11
-151.75
 21
-6.25
 31
0.0
  0
LINE
  5
AE
  8
DIMNSIONS
  6
CONTINUOUS
 62
     7
 10
-109.5
 20
148.75
 30
0.0
 11
-151.75
 21
148.75
 31
0.0
  0
LINE
  5
AF
  8
DIMNSIONS
  6
CONTINUOUS
 62
     7
 10
-143.75
 20
-6.25
 30
0.0
 11
-143.75
 21
148.75
 31
0.0
  0
LINE
  5
B0
  8
DIMNSIONS
  6
CONTINUOUS
 62
     7
 10
-143.75
 20
-6.25
 30
0.0
 11
-146.43015918060101
 21
3.7524902343749882
 31
0.0
  0
LINE
  5
B1
  8
DIMNSIONS
  6
CONTINUOUS
 62
     7
 10
-143.75
 20
-6.25
 30
0.0
 11
-141.06984081939899
 21
3.7524902343749882
 31
0.0
  0
LINE
  5
B2
  8
DIMNSIONS
  6
CONTINUOUS
 62
     7
 10
-143.75
 20
148.75
 30
0.0
 11
-141.06984081939899
 21
138.74750976562501
 31
0.0
  0
LINE
  5
B3
  8
DIMNSIONS
  6
CONTINUOUS
 62
     7
 10
-143.75
 20
148.75
 30
0.0
 11
-146.43015918060101
 21
138.74750976562501
 31
0.0
  0
TEXT
  5
B4
  8
DIMNSIONS
 62
     7
 10
-147.72555555555539
 20
60.666666666666671
 30
0.0
 40
10.85894097222222
  1
155
 50
90.0
 41
0.7
 11
-158.5844965277777
 21
60.666666666666671
 31
0.0
 73
     3
  0
LINE
  5
B5
  8
DIMNSIONS
  6
CONTINUOUS
 62
     7
 10
-92.289971116605429
 20
424.14519622991281
 30
0.0
 11
-81.250000000000014
 21
437.5
 31
0.0
  0
LINE
  5
B6
  8
DIMNSIONS
  6
CONTINUOUS
 62
     7
 10
-92.289971116605429
 20
424.14519622991281
 30
0.0
 11
-87.913615374912254
 21
433.53032140458572
 31
0.0
  0
LINE
  5
B7
  8
DIMNSIONS
  6
CONTINUOUS
 62
     7
 10
-92.289971116605429
 20
424.14519622991281
 30
0.0
 11
-83.807373280964853
 21
430.08477517802959
 31
0.0
  0
LINE
  5
B8
  8
DIMNSIONS
  6
CONTINUOUS
 62
     7
 10
-81.250000000000014
 20
437.5
 30
0.0
 11
-45.027777777777779
 21
437.5
 31
0.0
  0
TEXT
  5
B9
  8
DIMNSIONS
 62
     7
 10
-73.250000000000014
 20
441.47555555555539
 30
0.0
 40
10.85894097222222
  1
\U+03C614
 41
0.7
 11
-73.250000000000014
 21
452.33449652777767
 31
0.0
 73
     3
  0
LINE
  5
BA
  8
DIMNSIONS
  6
CONTINUOUS
 62
     7
 10
93.749999999999986
 20
-128.75
 30
0.0
 11
93.75
 21
-100.0
 31
0.0
  0
LINE
  5
BB
  8
DIMNSIONS
  6
CONTINUOUS
 62
     7
 10
80.759618943233406
 20
-151.25
 30
0.0
 11
55.861388584430813
 21
-165.625
 31
0.0
  0
LINE
  5
BC
  8
DIMNSIONS
  6
CONTINUOUS
 62
     7
 10
106.84999999999999
 20
-151.3132885263841
 30
0.0
 11
131.63861141556919
 21
-165.625
 31
0.0
  0
ARC
  5
BD
  8
DIMNSIONS
  6
CONTINUOUS
 62
     7
 10
93.75
 20
-143.75
 30
0.0
 40
37.505914206433417
 50
329.99999999999989
 51
90.000000000000028
  0
LINE
  5
BE
  8
DIMNSIONS
  6
CONTINUOUS
 62
     7
 10
93.75
 20
-106.2440857935665
 30
0.0
 11
103.752490234375
 21
-103.5639266129656
 31
0.0
  0
LINE
  5
BF
  8
DIMNSIONS
  6
CONTINUOUS
 62
     7
 10
93.75
 20
-106.2440857935665
 30
0.0
 11
103.752490234375
 21
-108.92424497416749
 31
0.0
  0
LINE
  5
C0
  8
DIMNSIONS
  6
CONTINUOUS
 62
     7
 10
126.23107449493099
 20
-162.50295710321669
 30
0.0
 11
129.08539299926241
 21
-152.54876552388899
 31
0.0
  0
LINE
  5
C1
  8
DIMNSIONS
  6
CONTINUOUS
 62
     7
 10
126.23107449493099
 20
-162.50295710321669
 30
0.0
 11
133.6800826198378
 21
-155.30953357354741
 31
0.0
  0
TEXT
  5
C2
  8
DIMNSIONS
 62
     7
 10
120.854562155754
 20
-107.73353924669659
 30
0.0
 40
10.85894097222222
  1
120\U+00B0
 50
300.0
 41
0.7
 11
130.2586808958942
 21
-102.30406876058549
 31
0.0
 73
     3
  0
LINE
  5
C3
  8
DIMNSIONS
  6
CONTINUOUS
 62
     7
 10
210.75
 20
-154.75
 30
0.0
 11
173.25
 21
-154.75
 31
0.0
  0
LINE
  5
C4
  8
DIMNSIONS
  6
CONTINUOUS
 62
     7
 10
210.75
 20
-132.75
 30
0.0
 11
173.25
 21
-132.75
 31
0.0
  0
LINE
  5
C5
  8
DIMNSIONS
  6
CONTINUOUS
 62
     7
 10
181.25
 20
-132.75
 30
0.0
 11
181.25
 21
-154.75
 31
0.0
  0
LINE
  5
C6
  8
DIMNSIONS
  6
CONTINUOUS
 62
     7
 10
181.25
 20
-154.75
 30
0.0
 11
181.25
 21
-174.75
 31
0.0
  0
LINE
  5
C7
  8
DIMNSIONS
  6
CONTINUOUS
 62
     7
 10
181.25
 20
-154.75
 30
0.0
 11
183.93015918060101
 21
-164.75249023437499
 31
0.0
  0
LINE
  5
C8
  8
DIMNSIONS
  6
CONTINUOUS
 62
     7
 10
181.25
 20
-154.75
 30
0.0
 11
178.56984081939899
 21
-164.75249023437499
 31
0.0
  0
LINE
  5
C9
  8
DIMNSIONS
  6
CONTINUOUS
 62
     7
 10
181.25
 20
-132.75
 30
0.0
 11
181.25
 21
-112.75
 31
0.0
  0
LINE
  5
CA
  8
DIMNSIONS
  6
CONTINUOUS
 62
     7
 10
181.25
 20
-132.75
 30
0.0
 11
178.56984081939899
 21
-122.747509765625
 31
0.0
  0
LINE
  5
CB
  8
DIMNSIONS
  6
CONTINUOUS
 62
     7
 10
181.25
 20
-132.75
 30
0.0
 11
183.93015918060101
 21
-122.747509765625
 31
0.0
  0
TEXT
  5
CC
  8
DIMNSIONS
 62
     7
 10
177.27444444444441
 20
-150.80555555555549
 30
0.0
 40
10.85894097222222
  1
22
 50
90.0
 41
0.7
 11
166.41550347222221
 21
-150.80555555555549
 31
0.0
 73
     3
  0
LINE
  5
CD
  8
DIMNSIONS
  6
CONTINUOUS
 62
     7
 10
230.0027591455854
 20
-129.70096403266601
 30
0.0
 11
243.7000000000001
 21
-112.59999999999999
 31
0.0
  0
LINE
  5
CE
  8
DIMNSIONS
  6
CONTINUOUS
 62
     7
 10
230.0027591455854
 20
-129.70096403266601
 30
0.0
 11
234.21465532808861
 21
-120.240890318897
 31
0.0
  0
LINE
  5
CF
  8
DIMNSIONS
  6
CONTINUOUS
 62
     7
 10
230.0027591455854
 20
-129.70096403266601
 30
0.0
 11
238.38040509462039
 21
-123.6142479661203
 31
0.0
  0
LINE
  5
D0
  8
DIMNSIONS
  6
CONTINUOUS
 62
     7
 10
243.7000000000001
 20
-112.59999999999999
 30
0.0
 11
279.92222222222227
 21
-112.59999999999999
 31
0.0
  0
TEXT
  5
D1
  8
DIMNSIONS
 62
     7
 10
251.69999999999999
 20
-108.62444444444451
 30
0.0
 40
10.85894097222222
  1
\U+03C636
 41
0.7
 11
251.69999999999999
 21
-97.765503472222278
 31
0.0
 73
     3
  0
ARC
  5
D2
  8
DIMNSIONS
  6
CONTINUOUS
 62
     7
 10
93.749999999999986
 20
-143.75
 30
0.0
 40
37.50119575390729
 50
210.0
 51
329.99999999999989
  0
LINE
  5
D3
  8
DIMNSIONS
  6
CONTINUOUS
 62
     7
 10
126.2269881951768
 20
-162.50059787695369
 30
0.0
 11
123.3726696908454
 21
-172.45478945628139
 31
0.0
  0
LINE
  5
D4
  8
DIMNSIONS
  6
CONTINUOUS
 62
     7
 10
126.2269881951768
 20
-162.50059787695369
 30
0.0
 11
118.77798007027
 21
-169.69402140662291
 31
0.0
  0
LINE
  5
D5
  8
DIMNSIONS
  6
CONTINUOUS
 62
     7
 10
61.273011804823142
 20
-162.50059787695361
 30
0.0
 11
68.595342858597178
 21
-169.82292893072761
 31
0.0
  0
LINE
  5
D6
  8
DIMNSIONS
  6
CONTINUOUS
 62
     7
 10
61.273011804823142
 20
-162.50059787695361
 30
0.0
 11
63.953170985424102
 21
-172.50308811132859
 31
0.0
  0
TEXT
  5
D7
  8
DIMNSIONS
 62
     7
 10
76.111111111111057
 20
-195.38675130946291
 30
0.0
 40
10.85894097222222
  1
120\U+00B0
 41
0.7
 11
76.111111111111057
 21
-184.52781033724071
 31
0.0
 73
     3
  0
ARC
  5
D8
  8
DIMNSIONS
  6
CONTINUOUS
 62
     7
 10
93.75
 20
-143.75
 30
0.0
 40
37.504196233814703
 50
90.0
 51
210.0
  0
LINE
  5
D9
  8
DIMNSIONS
  6
CONTINUOUS
 62
     7
 10
61.270413312999807
 20
-162.5020981169074
 30
0.0
 11
53.948082259225771
 21
-155.17976706313331
 31
0.0
  0
LINE
  5
DA
  8
DIMNSIONS
  6
CONTINUOUS
 62
     7
 10
61.270413312999807
 20
-162.5020981169074
 30
0.0
 11
58.590254132398833
 21
-152.4996078825323
 31
0.0
  0
LINE
  5
DB
  8
DIMNSIONS
  6
CONTINUOUS
 62
     7
 10
93.75
 20
-106.2458037661853
 30
0.0
 11
83.747509765625026
 21
-108.9259629467863
 31
0.0
  0
LINE
  5
DC
  8
DIMNSIONS
  6
CONTINUOUS
 62
     7
 10
93.75
 20
-106.2458037661853
 30
0.0
 11
83.747509765625026
 21
-103.56564458558429
 31
0.0
  0
TEXT
  5
DD
  8
DIMNSIONS
 62
     7
 10
49.00803676328789
 20
-138.28584997762371
 30
0.0
 40
10.85894097222222
  1
120\U+00B0
 50
60.0
 41
0.7
 11
39.603918023147749
 21
-132.8563794915126
 31
0.0
 73
     3
  0
CIRCLE
  5
DE
  8
DATA
  6
CONTINUOUS
 62
     7
 10
93.749999999999986
 20
-143.75
 30
0.0
 40
22.5
  0
CIRCLE
  5
DF
  8
DATA
  6
CONTINUOUS
 62
     7
 10
93.749999999999986
 20
-143.75
 30
0.0
 40
12.65
  0
CIRCLE
  5
E0
  8
DATA
  6
CONTINUOUS
 62
     7
 10
93.749999999999986
 20
-143.75
 30
0.0
 40
7.8499999999999934
  0
CIRCLE
  5
E1
  8
DATA
  6
CONTINUOUS
 62
     7
 10
93.749999999999986
 20
-126.05
 30
0.0
 40
1.5999999999999941
  0
CIRCLE
  5
E2
  8
DATA
  6
CONTINUOUS
 62
     7
 10
78.421350353015626
 20
-152.5999999999998
 30
0.0
 40
1.5999999999999941
  0
CIRCLE
  5
E3
  8
DATA
  6
CONTINUOUS
 62
     7
 10
93.749999999999986
 20
-126.05
 30
0.0
 40
3.3499999999999939
  0
CIRCLE
  5
E4
  8
DATA
  6
CONTINUOUS
 62
     7
 10
78.421350353015626
 20
-152.5999999999998
 30
0.0
 40
3.3499999999999939
  0
CIRCLE
  5
E5
  8
DATA
  6
CONTINUOUS
 62
     7
 10
109.0786496469843
 20
-152.59999999999991
 30
0.0
 40
3.3499999999999939
  0
CIRCLE
  5
E6
  8
DATA
  6
CONTINUOUS
 62
     7
 10
109.0786496469843
 20
-152.59999999999991
 30
0.0
 40
1.5999999999999941
  0
CIRCLE
  5
E7
  8
DATA
  6
CONTINUOUS
 62
     7
 10
93.749999999999986
 20
-147.94763070422161
 30
0.0
 40
1.2849999999999959
  0
CIRCLE
  5
E8
  8
DATA
  6
CONTINUOUS
 62
     7
 10
89.873585927231787
 20
-145.51059232394459
 30
0.0
 40
1.2849999999999959
  0
CIRCLE
  5
E9
  8
DATA
  6
CONTINUOUS
 62
     7
 10
97.626414072768199
 20
-145.51059232394459
 30
0.0
 40
1.2849999999999959
  0
ARC
  5
EA
  8
DATA
  6
CONTINUOUS
 62
     7
 10
88.800000000000111
 20
-137.77529420359789
 30
0.0
 40
1.13137084989853
 50
40.107835965612971
 51
219.17516296021969
  0
TEXT
  5
EB
  8
DATA
 62
     7
 10
300.0
 20
-324.88099499999993
 30
0.0
 40
9.7730468750000004
  1
GN 30 ESP
 41
0.7
 11
300.0
 21
-315.10794812500001
 31
0.0
 73
     3
  0
TEXT
  5
EC
  8
DATA
 62
     7
 10
300.0
 20
-295.88099499999993
 30
0.0
 40
9.7730468750000004
  1
AKG
 41
0.7
 11
300.0
 21
-286.10794812500001
 31
0.0
 73
     3
  0
TEXT
  5
ED
  8
DATA
 62
     7
 10
290.0
 20
-309.7888198
 30
0.0
 40
6.5153748437499992
  1
グースネック
 41
0.7
 11
290.0
 21
-303.27344495624999
 31
0.0
 73
     3
  0
TEXT
  5
EE
  8
DATA
 62
     7
 10
-220.0
 20
-352.45255500000007
 30
0.0
 40
6.5153645833333318
  1
仕様および外観は予告なく変更されることがありますので、ご了承ください。
 41
0.7
 11
-220.0
 21
-345.93719041666668
 31
0.0
 73
     3
  0
LINE
  5
EF
  8
DATA
  6
CONTINUOUS
 62
     7
 10
-106.25
 20
-6.25
 30
0.0
 11
-106.25
 21
98.785418762584882
 31
0.0
  0
LINE
  5
F0
  8
DATA
  6
CONTINUOUS
 62
     7
 10
-87.250000000000014
 20
-6.25
 30
0.0
 11
-87.250000000000014
 21
98.785418762584882
 31
0.0
  0
CIRCLE
  5
F1
  8
DATA
  6
CONTINUOUS
 62
     7
 10
-96.75
 20
10.75
 30
0.0
 40
2.3000000000000109
  0
LINE
  5
F2
  8
DATA
  6
CONTINUOUS
 62
     7
 10
-97.60842879728024
 20
9.8915712027197156
 30
0.0
 11
-95.891571202719746
 21
11.608428797280281
 31
0.0
  0
LINE
  5
F3
  8
DATA
  6
CONTINUOUS
 62
     7
 10
-95.891571202719746
 20
9.8915712027197742
 30
0.0
 11
-97.608428797280268
 21
11.608428797280281
 31
0.0
  0
TEXT
  5
F4
  8
DATA
 62
     7
 10
-103.03623733473449
 20
-4.4510959170974127
 30
0.0
 40
2.0849166666666661
  1
GN 30 ESP
 41
0.7
 11
-103.03623733473449
 21
-2.3661792504307471
 31
0.0
 73
     3
  0
ARC
  5
F5
  8
DATA
  6
CONTINUOUS
 62
     7
 10
-96.75
 20
49.783755611457281
 30
0.0
 40
3.4000000000000048
 50
359.9999999999996
 51
180.0000000000004
  0
ARC
  5
F6
  8
DATA
  6
CONTINUOUS
 62
     7
 10
-96.75
 20
44.583755611457242
 30
0.0
 40
3.4000000000000048
 50
179.9999999999996
 51
0.0000000000004547
  0
LINE
  5
F7
  8
DATA
  6
CONTINUOUS
 62
     7
 10
-100.15000000000001
 20
44.583755611457264
 30
0.0
 11
-100.15000000000001
 21
49.783755611457252
 31
0.0
  0
LINE
  5
F8
  8
DATA
  6
CONTINUOUS
 62
     7
 10
-93.350000000000023
 20
44.583755611457264
 30
0.0
 11
-93.350000000000023
 21
49.783755611457252
 31
0.0
  0
TEXT
  5
F9
  8
DATA
 62
     7
 10
-100.28175083757939
 20
37.203728944790619
 30
0.0
 40
2.0849166666666661
  1
ON/OFF
 41
0.7
 11
-100.28175083757939
 21
39.288645611457277
 31
0.0
 73
     3
  0
TEXT
  5
FA
  8
DATA
 62
     7
 10
-105.020171746286
 20
33.83465999340666
 30
0.0
 40
2.0849166666666661
  1
PROGRAMMABLE
 41
0.7
 11
-105.020171746286
 21
35.919576660073332
 31
0.0
 73
     3
  0
LINE
  5
FB
  8
DATA
  6
CONTINUOUS
 62
     7
 10
-101.5
 20
148.75
 30
0.0
 11
-92.0
 21
148.75
 31
0.0
  0
LINE
  5
FC
  8
DATA
  6
CONTINUOUS
 62
     7
 10
-101.5
 20
138.75
 30
0.0
 11
-101.5
 21
148.75
 31
0.0
  0
ARC
  5
FD
  8
DATA
  6
CONTINUOUS
 62
     7
 10
-218.7779729729709
 20
138.92563063063031
 30
0.0
 40
117.27810448147309
 50
347.0754916853241
 51
359.91419627990967
  0
ARC
  5
FE
  8
DATA
  6
CONTINUOUS
 62
     7
 10
-17.095568517566011
 20
92.834258333217065
 30
0.0
 40
89.604113614228197
 50
167.0595793513568
 51
171.35764532212571
  0
ARC
  5
FF
  8
DATA
  6
CONTINUOUS
 62
     7
 10
-56.249999999999417
 20
98.785418762584882
 30
0.0
 40
50.000000000000597
 50
171.35764532212579
 51
180.0
  0
LINE
  5
100
  8
DATA
  6
CONTINUOUS
 62
     7
 10
-92.0
 20
138.75
 30
0.0
 11
-92.0
 21
148.75
 31
0.0
  0
ARC
  5
101
  8
DATA
  6
CONTINUOUS
 62
     7
 10
25.277972972970971
 20
138.92563063063031
 30
0.0
 40
117.27810448147309
 50
180.08580372009021
 51
192.9245083146759
  0
ARC
  5
102
  8
DATA
  6
CONTINUOUS
 62
     7
 10
-176.40443148243401
 20
92.834258333217065
 30
0.0
 40
89.604113614228197
 50
8.6423546778743336
 51
12.940420648643149
  0
ARC
  5
103
  8
DATA
  6
CONTINUOUS
 62
     7
 10
-137.25000000000051
 20
98.785418762584882
 30
0.0
 40
50.000000000000568
 50
0.0
 51
8.6423546778742093
  0
LINE
  5
104
  8
DATA
  6
CONTINUOUS
 62
     7
 10
-101.5
 20
144.75
 30
0.0
 11
-92.0
 21
144.75
 31
0.0
  0
LINE
  5
105
  8
DATA
  6
CONTINUOUS
 62
     7
 10
-101.5
 20
142.75
 30
0.0
 11
-92.0
 21
142.75
 31
0.0
  0
LINE
  5
106
  8
DATA
  6
CONTINUOUS
 62
     7
 10
-101.5
 20
140.25
 30
0.0
 11
-92.0
 21
140.25
 31
0.0
  0
LINE
  5
107
  8
DATA
  6
CONTINUOUS
 62
     7
 10
-101.5
 20
138.25
 30
0.0
 11
-92.0
 21
138.25
 31
0.0
  0
LINE
  5
108
  8
DATA
  6
CONTINUOUS
 62
     7
 10
-100.625
 20
148.75
 30
0.0
 11
-100.625
 21
203.75
 31
0.0
  0
LINE
  5
109
  8
DATA
  6
CONTINUOUS
 62
     7
 10
-100.625
 20
293.75
 30
0.0
 11
-100.625
 21
348.75
 31
0.0
  0
LINE
  5
10A
  8
DATA
  6
CONTINUOUS
 62
     7
 10
-92.874999999999986
 20
148.75
 30
0.0
 11
-92.874999999999986
 21
203.75
 31
0.0
  0
LINE
  5
10B
  8
DATA
  6
CONTINUOUS
 62
     7
 10
-92.874999999999986
 20
293.75
 30
0.0
 11
-92.874999999999986
 21
348.75
 31
0.0
  0
LINE
  5
10C
  8
DATA
  6
CONTINUOUS
 62
     7
 10
-101.5
 20
203.75
 30
0.0
 11
-92.0
 21
203.75
 31
0.0
  0
LINE
  5
10D
  8
DATA
  6
CONTINUOUS
 62
     7
 10
-101.5
 20
293.75
 30
0.0
 11
-92.0
 21
293.75
 31
0.0
  0
LINE
  5
10E
  8
DATA
  6
CONTINUOUS
 62
     7
 10
-101.5
 20
203.75
 30
0.0
 11
-101.5
 21
293.75
 31
0.0
  0
LINE
  5
10F
  8
DATA
  6
CONTINUOUS
 62
     7
 10
-92.0
 20
203.75
 30
0.0
 11
-92.0
 21
293.75
 31
0.0
  0
LINE
  5
110
  8
DATA
  6
CONTINUOUS
 62
     7
 10
-101.5
 20
348.75
 30
0.0
 11
-92.0
 21
348.75
 31
0.0
  0
LINE
  5
111
  8
DATA
  6
CONTINUOUS
 62
     7
 10
-103.75
 20
398.75
 30
0.0
 11
-89.750000000000014
 21
398.75
 31
0.0
  0
LINE
  5
112
  8
DATA
  6
CONTINUOUS
 62
     7
 10
-101.5
 20
348.75
 30
0.0
 11
-101.5
 21
358.75
 31
0.0
  0
LINE
  5
113
  8
DATA
  6
CONTINUOUS
 62
     7
 10
-92.0
 20
348.75
 30
0.0
 11
-92.0
 21
358.75
 31
0.0
  0
LINE
  5
114
  8
DATA
  6
CONTINUOUS
 62
     7
 10
-101.5
 20
358.75
 30
0.0
 11
-101.5
 21
370.29999999999939
 31
0.0
  0
ARC
  5
115
  8
DATA
  6
CONTINUOUS
 62
     7
 10
-246.29312796206261
 20
362.64976303317769
 30
0.0
 40
144.99508967784661
 50
3.0244466749958598
 51
8.1769856059160038
  0
ARC
  5
116
  8
DATA
  6
CONTINUOUS
 62
     7
 10
-53.280467206882889
 20
390.38417825401677
 30
0.0
 40
50.000000002473357
 50
181.98252386108439
 51
188.1769856056101
  0
LINE
  5
117
  8
DATA
  6
CONTINUOUS
 62
     7
 10
-92.0
 20
358.75
 30
0.0
 11
-92.0
 21
370.29999999999939
 31
0.0
  0
ARC
  5
118
  8
DATA
  6
CONTINUOUS
 62
     7
 10
52.793127962062599
 20
362.64976303317769
 30
0.0
 40
144.99508967784661
 50
171.823014394084
 51
176.97555332500411
  0
ARC
  5
119
  8
DATA
  6
CONTINUOUS
 62
     7
 10
-140.21953279311711
 20
390.38417825401677
 30
0.0
 40
50.000000002473357
 50
351.82301439438982
 51
358.0174761389157
  0
LINE
  5
11A
  8
DATA
  6
CONTINUOUS
 62
     7
 10
-101.5
 20
207.75
 30
0.0
 11
-92.0
 21
207.75
 31
0.0
  0
LINE
  5
11B
  8
DATA
  6
CONTINUOUS
 62
     7
 10
-101.5
 20
209.75
 30
0.0
 11
-92.0
 21
209.75
 31
0.0
  0
LINE
  5
11C
  8
DATA
  6
CONTINUOUS
 62
     7
 10
-101.5
 20
212.25
 30
0.0
 11
-92.0
 21
212.25
 31
0.0
  0
LINE
  5
11D
  8
DATA
  6
CONTINUOUS
 62
     7
 10
-101.5
 20
214.25
 30
0.0
 11
-92.0
 21
214.25
 31
0.0
  0
LINE
  5
11E
  8
DATA
  6
CONTINUOUS
 62
     7
 10
-101.5
 20
289.75
 30
0.0
 11
-92.0
 21
289.75
 31
0.0
  0
LINE
  5
11F
  8
DATA
  6
CONTINUOUS
 62
     7
 10
-101.5
 20
287.75
 30
0.0
 11
-92.0
 21
287.75
 31
0.0
  0
LINE
  5
120
  8
DATA
  6
CONTINUOUS
 62
     7
 10
-101.5
 20
285.25
 30
0.0
 11
-92.0
 21
285.25
 31
0.0
  0
LINE
  5
121
  8
DATA
  6
CONTINUOUS
 62
     7
 10
-101.5
 20
283.25
 30
0.0
 11
-92.0
 21
283.25
 31
0.0
  0
LINE
  5
122
  8
DATA
  6
CONTINUOUS
 62
     7
 10
-101.5
 20
352.75
 30
0.0
 11
-92.0
 21
352.75
 31
0.0
  0
LINE
  5
123
  8
DATA
  6
CONTINUOUS
 62
     7
 10
-101.5
 20
354.75
 30
0.0
 11
-92.0
 21
354.75
 31
0.0
  0
LINE
  5
124
  8
DATA
  6
CONTINUOUS
 62
     7
 10
-101.5
 20
357.25
 30
0.0
 11
-92.0
 21
357.25
 31
0.0
  0
LINE
  5
125
  8
DATA
  6
CONTINUOUS
 62
     7
 10
-101.5
 20
359.25
 30
0.0
 11
-92.0
 21
359.25
 31
0.0
  0
LINE
  5
126
  8
DATA
  6
CONTINUOUS
 62
     7
 10
-101.96401933148501
 20
389.44999999999999
 30
0.0
 11
-91.535980668514924
 21
389.44999999999999
 31
0.0
  0
LINE
  5
127
  8
DATA
  6
CONTINUOUS
 62
     7
 10
-101.96401933148501
 20
387.14999999999998
 30
0.0
 11
-91.535980668514924
 21
387.14999999999998
 31
0.0
  0
LINE
  5
128
  8
DATA
  6
CONTINUOUS
 62
     7
 10
-101.96401933148501
 20
389.44999999999999
 30
0.0
 11
-101.96401933148501
 21
387.14999999999998
 31
0.0
  0
LINE
  5
129
  8
DATA
  6
CONTINUOUS
 62
     7
 10
-91.535980668514924
 20
389.44999999999999
 30
0.0
 11
-91.535980668514924
 21
387.14999999999998
 31
0.0
  0
CIRCLE
  5
12A
  8
DATA
  6
CONTINUOUS
 62
     7
 10
-96.75
 20
418.75
 30
0.0
 40
7.0
  0
CIRCLE
  5
12B
  8
DATA
  6
CONTINUOUS
 62
     7
 10
-96.75
 20
418.75
 30
0.0
 40
1.4250000000000109
  0
CIRCLE
  5
12C
  8
DATA
  6
CONTINUOUS
 62
     7
 10
-96.75
 20
418.75
 30
0.0
 40
6.5
  0
CIRCLE
  5
12D
  8
DATA
  6
CONTINUOUS
 62
     7
 10
-96.75
 20
-40.499999999639641
 30
0.0
 40
9.5
  0
LINE
  5
12E
  8
DATA
  6
CONTINUOUS
 62
     7
 10
-100.15000000000001
 20
-29.629261586181482
 30
0.0
 11
-100.15000000000001
 21
-30.239999999640311
 31
0.0
  0
LINE
  5
12F
  8
DATA
  6
CONTINUOUS
 62
     7
 10
-93.40048818690164
 20
-29.610074768575348
 30
0.0
 11
-93.40048818690164
 21
-30.299999999639802
 31
0.0
  0
ARC
  5
130
  8
DATA
  6
CONTINUOUS
 62
     7
 10
-96.75
 20
-38.499999999639641
 30
0.0
 40
9.5000000000000142
 50
69.354787441978644
 51
110.9709607722325
  0
ARC
  5
131
  8
DATA
  6
CONTINUOUS
 62
     7
 10
-96.831007210309352
 20
-36.54289693250341
 30
0.0
 40
7.1233575569615804
 50
61.210873009302091
 51
117.7704885126291
  0
LINE
  5
132
  8
DATA
  6
CONTINUOUS
 62
     7
 10
-99.552714552334081
 20
-29.959999999639649
 30
0.0
 11
-99.552714552334081
 21
-31.422842342193121
 31
0.0
  0
LINE
  5
133
  8
DATA
  6
CONTINUOUS
 62
     7
 10
-93.947285447665962
 20
-30.029344009560649
 30
0.0
 11
-93.947285447665962
 21
-31.422842342193121
 31
0.0
  0
ARC
  5
134
  8
DATA
  6
CONTINUOUS
 62
     7
 10
-96.749999999999204
 20
-40.499999999639179
 30
0.0
 40
7.9999999999991873
 50
62.44366095642404
 51
48.927249057893292
  0
CIRCLE
  5
135
  8
DATA
  6
CONTINUOUS
 62
     7
 10
-96.75
 20
-45.018476398785232
 30
0.0
 40
1.199999999999988
  0
CIRCLE
  5
136
  8
DATA
  6
CONTINUOUS
 62
     7
 10
-101.1447842915931
 20
-41.549999999639653
 30
0.0
 40
1.199999999999988
  0
CIRCLE
  5
137
  8
DATA
  6
CONTINUOUS
 62
     7
 10
-92.355215708406945
 20
-41.549999999639653
 30
0.0
 40
1.199999999999988
  0
ARC
  5
138
  8
DATA
  6
CONTINUOUS
 62
     7
 10
-92.461535953882347
 20
-34.216773720343127
 30
0.0
 40
1.0000000000000091
 50
345.39115668930378
 51
125.9797533250055
  0
LINE
  5
139
  8
DATA
  6
CONTINUOUS
 62
     7
 10
337.5
 20
-6.25
 30
0.0
 11
337.5
 21
98.785418762584882
 31
0.0
  0
LINE
  5
13A
  8
DATA
  6
CONTINUOUS
 62
     7
 10
337.5
 20
-6.25
 30
0.0
 11
356.5
 21
-6.25
 31
0.0
  0
LINE
  5
13B
  8
DATA
  6
CONTINUOUS
 62
     7
 10
356.5
 20
-6.25
 30
0.0
 11
356.5
 21
98.785418762584882
 31
0.0
  0
LINE
  5
13C
  8
DATA
  6
CONTINUOUS
 62
     7
 10
342.25
 20
148.75
 30
0.0
 11
351.75
 21
148.75
 31
0.0
  0
LINE
  5
13D
  8
DATA
  6
CONTINUOUS
 62
     7
 10
342.25
 20
138.75
 30
0.0
 11
342.25
 21
148.75
 31
0.0
  0
ARC
  5
13E
  8
DATA
  6
CONTINUOUS
 62
     7
 10
224.97202702702899
 20
138.92563063063031
 30
0.0
 40
117.27810448147309
 50
347.0754916853241
 51
359.91419627990967
  0
ARC
  5
13F
  8
DATA
  6
CONTINUOUS
 62
     7
 10
426.65443148243401
 20
92.834258333217065
 30
0.0
 40
89.604113614228197
 50
167.0595793513568
 51
171.35764532212571
  0
ARC
  5
140
  8
DATA
  6
CONTINUOUS
 62
     7
 10
387.50000000000051
 20
98.785418762584882
 30
0.0
 40
50.000000000000561
 50
171.35764532212579
 51
180.0
  0
LINE
  5
141
  8
DATA
  6
CONTINUOUS
 62
     7
 10
351.75
 20
138.75
 30
0.0
 11
351.75
 21
148.75
 31
0.0
  0
ARC
  5
142
  8
DATA
  6
CONTINUOUS
 62
     7
 10
469.02797297297087
 20
138.92563063063031
 30
0.0
 40
117.27810448147309
 50
180.08580372009021
 51
192.9245083146759
  0
ARC
  5
143
  8
DATA
  6
CONTINUOUS
 62
     7
 10
267.34556851756599
 20
92.834258333217065
 30
0.0
 40
89.604113614228197
 50
8.6423546778743336
 51
12.940420648643149
  0
ARC
  5
144
  8
DATA
  6
CONTINUOUS
 62
     7
 10
306.49999999999937
 20
98.785418762584882
 30
0.0
 40
50.000000000000568
 50
0.0
 51
8.6423546778742093
  0
LINE
  5
145
  8
DATA
  6
CONTINUOUS
 62
     7
 10
342.25
 20
144.75
 30
0.0
 11
351.75
 21
144.75
 31
0.0
  0
LINE
  5
146
  8
DATA
  6
CONTINUOUS
 62
     7
 10
342.25
 20
142.75
 30
0.0
 11
351.75
 21
142.75
 31
0.0
  0
LINE
  5
147
  8
DATA
  6
CONTINUOUS
 62
     7
 10
342.25
 20
140.25
 30
0.0
 11
351.75
 21
140.25
 31
0.0
  0
LINE
  5
148
  8
DATA
  6
CONTINUOUS
 62
     7
 10
342.25
 20
138.25
 30
0.0
 11
351.75
 21
138.25
 31
0.0
  0
LINE
  5
149
  8
DATA
  6
CONTINUOUS
 62
     7
 10
343.125
 20
148.75
 30
0.0
 11
343.125
 21
203.75
 31
0.0
  0
LINE
  5
14A
  8
DATA
  6
CONTINUOUS
 62
     7
 10
343.125
 20
293.75
 30
0.0
 11
343.125
 21
304.875
 31
0.0
  0
LINE
  5
14B
  8
DATA
  6
CONTINUOUS
 62
     7
 10
350.875
 20
148.75
 30
0.0
 11
350.875
 21
203.75
 31
0.0
  0
LINE
  5
14C
  8
DATA
  6
CONTINUOUS
 62
     7
 10
350.875
 20
293.75
 30
0.0
 11
350.875
 21
312.625
 31
0.0
  0
LINE
  5
14D
  8
DATA
  6
CONTINUOUS
 62
     7
 10
342.25
 20
203.75
 30
0.0
 11
351.75
 21
203.75
 31
0.0
  0
LINE
  5
14E
  8
DATA
  6
CONTINUOUS
 62
     7
 10
342.25
 20
293.75
 30
0.0
 11
351.75
 21
293.75
 31
0.0
  0
LINE
  5
14F
  8
DATA
  6
CONTINUOUS
 62
     7
 10
342.25
 20
203.75
 30
0.0
 11
342.25
 21
293.75
 31
0.0
  0
LINE
  5
150
  8
DATA
  6
CONTINUOUS
 62
     7
 10
351.75
 20
203.75
 30
0.0
 11
351.75
 21
293.75
 31
0.0
  0
LINE
  5
151
  8
DATA
  6
CONTINUOUS
 62
     7
 10
342.25
 20
207.75
 30
0.0
 11
351.75
 21
207.75
 31
0.0
  0
LINE
  5
152
  8
DATA
  6
CONTINUOUS
 62
     7
 10
342.25
 20
209.75
 30
0.0
 11
351.75
 21
209.75
 31
0.0
  0
LINE
  5
153
  8
DATA
  6
CONTINUOUS
 62
     7
 10
342.25
 20
212.25
 30
0.0
 11
351.75
 21
212.25
 31
0.0
  0
LINE
  5
154
  8
DATA
  6
CONTINUOUS
 62
     7
 10
342.25
 20
214.25
 30
0.0
 11
351.75
 21
214.25
 31
0.0
  0
LINE
  5
155
  8
DATA
  6
CONTINUOUS
 62
     7
 10
342.25
 20
289.75
 30
0.0
 11
351.75
 21
289.75
 31
0.0
  0
LINE
  5
156
  8
DATA
  6
CONTINUOUS
 62
     7
 10
342.25
 20
287.75
 30
0.0
 11
351.75
 21
287.75
 31
0.0
  0
LINE
  5
157
  8
DATA
  6
CONTINUOUS
 62
     7
 10
342.25
 20
285.25
 30
0.0
 11
351.75
 21
285.25
 31
0.0
  0
LINE
  5
158
  8
DATA
  6
CONTINUOUS
 62
     7
 10
342.25
 20
283.25
 30
0.0
 11
351.75
 21
283.25
 31
0.0
  0
LINE
  5
159
  8
DATA
  6
CONTINUOUS
 62
     7
 10
308.75
 20
319.0
 30
0.0
 11
308.75
 21
328.5
 31
0.0
  0
LINE
  5
15A
  8
DATA
  6
CONTINUOUS
 62
     7
 10
258.75
 20
316.75
 30
0.0
 11
258.75
 21
330.75
 31
0.0
  0
LINE
  5
15B
  8
DATA
  6
CONTINUOUS
 62
     7
 10
308.75
 20
319.0
 30
0.0
 11
298.75
 21
319.0
 31
0.0
  0
LINE
  5
15C
  8
DATA
  6
CONTINUOUS
 62
     7
 10
308.75
 20
328.5
 30
0.0
 11
298.75
 21
328.5
 31
0.0
  0
LINE
  5
15D
  8
DATA
  6
CONTINUOUS
 62
     7
 10
298.75
 20
319.0
 30
0.0
 11
287.20000000000061
 21
319.0
 31
0.0
  0
ARC
  5
15E
  8
DATA
  6
CONTINUOUS
 62
     7
 10
294.85023696682231
 20
174.20687203793739
 30
0.0
 40
144.99508967784661
 50
93.024446674995829
 51
98.176985605915988
  0
ARC
  5
15F
  8
DATA
  6
CONTINUOUS
 62
     7
 10
267.11582174598328
 20
367.21953279311708
 30
0.0
 40
50.000000002473321
 50
271.98252386108442
 51
278.17698560561013
  0
LINE
  5
160
  8
DATA
  6
CONTINUOUS
 62
     7
 10
298.75
 20
328.5
 30
0.0
 11
287.20000000000061
 21
328.5
 31
0.0
  0
ARC
  5
161
  8
DATA
  6
CONTINUOUS
 62
     7
 10
294.85023696682231
 20
473.2931279620625
 30
0.0
 40
144.99508967784661
 50
261.823014394084
 51
266.975553325004
  0
ARC
  5
162
  8
DATA
  6
CONTINUOUS
 62
     7
 10
267.11582174598323
 20
280.28046720688292
 30
0.0
 40
50.000000002473357
 50
81.823014394389801
 51
88.01747613891564
  0
LINE
  5
163
  8
DATA
  6
CONTINUOUS
 62
     7
 10
304.75
 20
319.0
 30
0.0
 11
304.75
 21
328.5
 31
0.0
  0
LINE
  5
164
  8
DATA
  6
CONTINUOUS
 62
     7
 10
302.75
 20
319.0
 30
0.0
 11
302.75
 21
328.5
 31
0.0
  0
LINE
  5
165
  8
DATA
  6
CONTINUOUS
 62
     7
 10
300.25
 20
319.0
 30
0.0
 11
300.25
 21
328.5
 31
0.0
  0
LINE
  5
166
  8
DATA
  6
CONTINUOUS
 62
     7
 10
298.25
 20
319.0
 30
0.0
 11
298.25
 21
328.5
 31
0.0
  0
LINE
  5
167
  8
DATA
  6
CONTINUOUS
 62
     7
 10
268.05000000000001
 20
318.53598066851492
 30
0.0
 11
268.05000000000001
 21
328.96401933148508
 31
0.0
  0
LINE
  5
168
  8
DATA
  6
CONTINUOUS
 62
     7
 10
270.35000000000002
 20
318.53598066851492
 30
0.0
 11
270.35000000000002
 21
328.96401933148508
 31
0.0
  0
LINE
  5
169
  8
DATA
  6
CONTINUOUS
 62
     7
 10
268.05000000000001
 20
318.53598066851492
 30
0.0
 11
270.35000000000002
 21
318.53598066851492
 31
0.0
  0
LINE
  5
16A
  8
DATA
  6
CONTINUOUS
 62
     7
 10
268.05000000000001
 20
328.96401933148508
 30
0.0
 11
270.35000000000002
 21
328.96401933148508
 31
0.0
  0
LINE
  5
16B
  8
DATA
  6
CONTINUOUS
 62
     7
 10
328.125
 20
319.875
 30
0.0
 11
308.75
 21
319.875
 31
0.0
  0
LINE
  5
16C
  8
DATA
  6
CONTINUOUS
 62
     7
 10
308.75
 20
327.625
 30
0.0
 11
335.875
 21
327.625
 31
0.0
  0
ARC
  5
16D
  8
DATA
  6
CONTINUOUS
 62
     7
 10
328.125
 20
304.875
 30
0.0
 40
15.0
 50
0.0
 51
90.0
  0
ARC
  5
16E
  8
DATA
  6
CONTINUOUS
 62
     7
 10
335.875
 20
312.625
 30
0.0
 40
15.0
 50
0.0
 51
90.0
  0
LINE
  5
16F
  8
DATA
  6
CONTINUOUS
 62
     7
 10
225.0
 20
-6.25
 30
0.0
 11
225.0
 21
98.785418762584882
 31
0.0
  0
LINE
  5
170
  8
DATA
  6
CONTINUOUS
 62
     7
 10
225.0
 20
-6.25
 30
0.0
 11
244.0
 21
-6.25
 31
0.0
  0
LINE
  5
171
  8
DATA
  6
CONTINUOUS
 62
     7
 10
244.0
 20
-6.25
 30
0.0
 11
244.0
 21
98.785418762584882
 31
0.0
  0
LINE
  5
172
  8
DATA
  6
CONTINUOUS
 62
     7
 10
229.75
 20
148.75
 30
0.0
 11
239.25
 21
148.75
 31
0.0
  0
LINE
  5
173
  8
DATA
  6
CONTINUOUS
 62
     7
 10
229.75
 20
138.75
 30
0.0
 11
229.75
 21
148.75
 31
0.0
  0
ARC
  5
174
  8
DATA
  6
CONTINUOUS
 62
     7
 10
112.472027027029
 20
138.92563063063031
 30
0.0
 40
117.27810448147309
 50
347.0754916853241
 51
359.91419627990967
  0
ARC
  5
175
  8
DATA
  6
CONTINUOUS
 62
     7
 10
314.15443148243401
 20
92.834258333217065
 30
0.0
 40
89.604113614228197
 50
167.0595793513568
 51
171.35764532212571
  0
ARC
  5
176
  8
DATA
  6
CONTINUOUS
 62
     7
 10
275.00000000000063
 20
98.785418762584882
 30
0.0
 40
50.000000000000597
 50
171.35764532212579
 51
180.0
  0
LINE
  5
177
  8
DATA
  6
CONTINUOUS
 62
     7
 10
239.25
 20
138.75
 30
0.0
 11
239.25
 21
148.75
 31
0.0
  0
ARC
  5
178
  8
DATA
  6
CONTINUOUS
 62
     7
 10
356.52797297297099
 20
138.92563063063031
 30
0.0
 40
117.27810448147309
 50
180.08580372009021
 51
192.9245083146759
  0
ARC
  5
179
  8
DATA
  6
CONTINUOUS
 62
     7
 10
154.84556851756599
 20
92.834258333217065
 30
0.0
 40
89.604113614228197
 50
8.6423546778743336
 51
12.940420648643149
  0
ARC
  5
17A
  8
DATA
  6
CONTINUOUS
 62
     7
 10
193.9999999999994
 20
98.785418762584882
 30
0.0
 40
50.000000000000568
 50
0.0
 51
8.6423546778742093
  0
LINE
  5
17B
  8
DATA
  6
CONTINUOUS
 62
     7
 10
229.75
 20
144.75
 30
0.0
 11
239.25
 21
144.75
 31
0.0
  0
LINE
  5
17C
  8
DATA
  6
CONTINUOUS
 62
     7
 10
229.75
 20
142.75
 30
0.0
 11
239.25
 21
142.75
 31
0.0
  0
LINE
  5
17D
  8
DATA
  6
CONTINUOUS
 62
     7
 10
229.75
 20
140.25
 30
0.0
 11
239.25
 21
140.25
 31
0.0
  0
LINE
  5
17E
  8
DATA
  6
CONTINUOUS
 62
     7
 10
229.75
 20
138.25
 30
0.0
 11
239.25
 21
138.25
 31
0.0
  0
LINE
  5
17F
  8
DATA
  6
CONTINUOUS
 62
     7
 10
230.625
 20
148.75
 30
0.0
 11
230.625
 21
164.92587332688831
 31
0.0
  0
LINE
  5
180
  8
DATA
  6
CONTINUOUS
 62
     7
 10
114.34363227382001
 20
179.92587332688831
 30
0.0
 11
59.343632273820113
 21
179.92587332688831
 31
0.0
  0
LINE
  5
181
  8
DATA
  6
CONTINUOUS
 62
     7
 10
238.375
 20
148.75
 30
0.0
 11
238.375
 21
172.67587332688831
 31
0.0
  0
LINE
  5
182
  8
DATA
  6
CONTINUOUS
 62
     7
 10
114.34363227382001
 20
187.67587332688831
 30
0.0
 11
59.343632273820113
 21
187.67587332688831
 31
0.0
  0
LINE
  5
183
  8
DATA
  6
CONTINUOUS
 62
     7
 10
204.34363227381991
 20
179.05087332688831
 30
0.0
 11
204.34363227381991
 21
188.55087332688831
 31
0.0
  0
LINE
  5
184
  8
DATA
  6
CONTINUOUS
 62
     7
 10
114.34363227382001
 20
179.05087332688831
 30
0.0
 11
114.34363227382001
 21
188.55087332688831
 31
0.0
  0
LINE
  5
185
  8
DATA
  6
CONTINUOUS
 62
     7
 10
204.34363227381991
 20
179.05087332688831
 30
0.0
 11
114.34363227382001
 21
179.05087332688831
 31
0.0
  0
LINE
  5
186
  8
DATA
  6
CONTINUOUS
 62
     7
 10
204.34363227381991
 20
188.55087332688831
 30
0.0
 11
114.34363227382001
 21
188.55087332688831
 31
0.0
  0
LINE
  5
187
  8
DATA
  6
CONTINUOUS
 62
     7
 10
59.343632273820113
 20
179.05087332688831
 30
0.0
 11
59.343632273820113
 21
188.55087332688831
 31
0.0
  0
LINE
  5
188
  8
DATA
  6
CONTINUOUS
 62
     7
 10
9.3436322738198907
 20
176.80087332688831
 30
0.0
 11
9.3436322738198907
 21
190.80087332688831
 31
0.0
  0
LINE
  5
189
  8
DATA
  6
CONTINUOUS
 62
     7
 10
59.343632273820113
 20
179.05087332688831
 30
0.0
 11
49.343632273820113
 21
179.05087332688831
 31
0.0
  0
LINE
  5
18A
  8
DATA
  6
CONTINUOUS
 62
     7
 10
59.343632273820113
 20
188.55087332688831
 30
0.0
 11
49.343632273820113
 21
188.55087332688831
 31
0.0
  0
LINE
  5
18B
  8
DATA
  6
CONTINUOUS
 62
     7
 10
49.343632273820113
 20
179.05087332688831
 30
0.0
 11
37.793632273820691
 21
179.05087332688831
 31
0.0
  0
ARC
  5
18C
  8
DATA
  6
CONTINUOUS
 62
     7
 10
45.443869240642378
 20
34.257745364825389
 30
0.0
 40
144.99508967784681
 50
93.024446674995829
 51
98.176985605916073
  0
ARC
  5
18D
  8
DATA
  6
CONTINUOUS
 62
     7
 10
17.70945401980315
 20
227.27040612000539
 30
0.0
 40
50.000000002473357
 50
271.98252386108442
 51
278.17698560561018
  0
LINE
  5
18E
  8
DATA
  6
CONTINUOUS
 62
     7
 10
49.343632273820113
 20
188.55087332688831
 30
0.0
 11
37.793632273820691
 21
188.55087332688831
 31
0.0
  0
ARC
  5
18F
  8
DATA
  6
CONTINUOUS
 62
     7
 10
45.443869240642378
 20
333.34400128895061
 30
0.0
 40
144.99508967784621
 50
261.823014394084
 51
266.97555332500423
  0
ARC
  5
190
  8
DATA
  6
CONTINUOUS
 62
     7
 10
17.70945401980315
 20
140.3313405337708
 30
0.0
 40
50.000000002473627
 50
81.823014394389844
 51
88.017476138915654
  0
LINE
  5
191
  8
DATA
  6
CONTINUOUS
 62
     7
 10
200.34363227381991
 20
179.05087332688831
 30
0.0
 11
200.34363227381991
 21
188.55087332688831
 31
0.0
  0
LINE
  5
192
  8
DATA
  6
CONTINUOUS
 62
     7
 10
198.34363227381991
 20
179.05087332688831
 30
0.0
 11
198.34363227381991
 21
188.55087332688831
 31
0.0
  0
LINE
  5
193
  8
DATA
  6
CONTINUOUS
 62
     7
 10
195.84363227381991
 20
179.05087332688831
 30
0.0
 11
195.84363227381991
 21
188.55087332688831
 31
0.0
  0
LINE
  5
194
  8
DATA
  6
CONTINUOUS
 62
     7
 10
193.84363227381991
 20
179.05087332688831
 30
0.0
 11
193.84363227381991
 21
188.55087332688831
 31
0.0
  0
LINE
  5
195
  8
DATA
  6
CONTINUOUS
 62
     7
 10
118.34363227382001
 20
179.05087332688831
 30
0.0
 11
118.34363227382001
 21
188.55087332688831
 31
0.0
  0
LINE
  5
196
  8
DATA
  6
CONTINUOUS
 62
     7
 10
120.34363227382001
 20
179.05087332688831
 30
0.0
 11
120.34363227382001
 21
188.55087332688831
 31
0.0
  0
LINE
  5
197
  8
DATA
  6
CONTINUOUS
 62
     7
 10
122.84363227382001
 20
179.05087332688831
 30
0.0
 11
122.84363227382001
 21
188.55087332688831
 31
0.0
  0
LINE
  5
198
  8
DATA
  6
CONTINUOUS
 62
     7
 10
124.84363227382001
 20
179.05087332688831
 30
0.0
 11
124.84363227382001
 21
188.55087332688831
 31
0.0
  0
LINE
  5
199
  8
DATA
  6
CONTINUOUS
 62
     7
 10
55.343632273820099
 20
179.05087332688831
 30
0.0
 11
55.343632273820099
 21
188.55087332688831
 31
0.0
  0
LINE
  5
19A
  8
DATA
  6
CONTINUOUS
 62
     7
 10
53.343632273820099
 20
179.05087332688831
 30
0.0
 11
53.343632273820099
 21
188.55087332688831
 31
0.0
  0
LINE
  5
19B
  8
DATA
  6
CONTINUOUS
 62
     7
 10
50.843632273820099
 20
179.05087332688831
 30
0.0
 11
50.843632273820099
 21
188.55087332688831
 31
0.0
  0
LINE
  5
19C
  8
DATA
  6
CONTINUOUS
 62
     7
 10
48.843632273820099
 20
179.05087332688831
 30
0.0
 11
48.843632273820099
 21
188.55087332688831
 31
0.0
  0
LINE
  5
19D
  8
DATA
  6
CONTINUOUS
 62
     7
 10
18.643632273819911
 20
178.5868539954032
 30
0.0
 11
18.643632273819911
 21
189.01489265837341
 31
0.0
  0
LINE
  5
19E
  8
DATA
  6
CONTINUOUS
 62
     7
 10
20.943632273819912
 20
178.5868539954032
 30
0.0
 11
20.943632273819912
 21
189.01489265837341
 31
0.0
  0
LINE
  5
19F
  8
DATA
  6
CONTINUOUS
 62
     7
 10
18.643632273819911
 20
178.5868539954032
 30
0.0
 11
20.943632273819912
 21
178.5868539954032
 31
0.0
  0
LINE
  5
1A0
  8
DATA
  6
CONTINUOUS
 62
     7
 10
18.643632273819911
 20
189.01489265837341
 30
0.0
 11
20.943632273819912
 21
189.01489265837341
 31
0.0
  0
LINE
  5
1A1
  8
DATA
  6
CONTINUOUS
 62
     7
 10
215.625
 20
179.92587332688831
 30
0.0
 11
204.34363227381991
 21
179.92587332688831
 31
0.0
  0
LINE
  5
1A2
  8
DATA
  6
CONTINUOUS
 62
     7
 10
204.34363227381991
 20
187.67587332688831
 30
0.0
 11
223.375
 21
187.67587332688831
 31
0.0
  0
ARC
  5
1A3
  8
DATA
  6
CONTINUOUS
 62
     7
 10
215.625
 20
164.92587332688831
 30
0.0
 40
15.0
 50
0.0
 51
90.0
  0
ARC
  5
1A4
  8
DATA
  6
CONTINUOUS
 62
     7
 10
223.375
 20
172.67587332688831
 30
0.0
 40
15.0
 50
0.0
 51
90.0
  0
CIRCLE
  5
1A5
  8
DATA
  6
CONTINUOUS
 62
     7
 10
-96.75
 20
-258.58783344826088
 30
0.0
 40
22.5
  0
CIRCLE
  5
1A6
  8
DATA
  6
CONTINUOUS
 62
     7
 10
-96.75
 20
-258.58783344826088
 30
0.0
 40
12.65
  0
CIRCLE
  5
1A7
  8
DATA
  6
CONTINUOUS
 62
     7
 10
-96.75
 20
-258.58783344826088
 30
0.0
 40
7.8499999999999934
  0
CIRCLE
  5
1A8
  8
DATA
  6
CONTINUOUS
 62
     7
 10
-96.75
 20
-240.88783344826089
 30
0.0
 40
1.5999999999999941
  0
CIRCLE
  5
1A9
  8
DATA
  6
CONTINUOUS
 62
     7
 10
-112.0786496469843
 20
-267.43783344826079
 30
0.0
 40
1.5999999999999941
  0
CIRCLE
  5
1AA
  8
DATA
  6
CONTINUOUS
 62
     7
 10
-96.75
 20
-240.88783344826089
 30
0.0
 40
3.3499999999999939
  0
CIRCLE
  5
1AB
  8
DATA
  6
CONTINUOUS
 62
     7
 10
-112.0786496469843
 20
-267.43783344826079
 30
0.0
 40
3.3499999999999939
  0
CIRCLE
  5
1AC
  8
DATA
  6
CONTINUOUS
 62
     7
 10
-81.421350353015626
 20
-267.43783344826079
 30
0.0
 40
3.3499999999999939
  0
CIRCLE
  5
1AD
  8
DATA
  6
CONTINUOUS
 62
     7
 10
-81.421350353015626
 20
-267.43783344826079
 30
0.0
 40
1.5999999999999941
  0
LINE
  5
1AE
  8
DATA
  6
CONTINUOUS
 62
     7
 10
-119.25
 20
-133.25
 30
0.0
 11
-74.250000000000014
 21
-133.25
 31
0.0
  0
LINE
  5
1AF
  8
DATA
  6
CONTINUOUS
 62
     7
 10
-119.25
 20
-131.25
 30
0.0
 11
-74.250000000000014
 21
-131.25
 31
0.0
  0
LINE
  5
1B0
  8
DATA
  6
CONTINUOUS
 62
     7
 10
-74.250000000000014
 20
-131.25
 30
0.0
 11
-74.250000000000014
 21
-133.25
 31
0.0
  0
LINE
  5
1B1
  8
DATA
  6
CONTINUOUS
 62
     7
 10
-119.25
 20
-133.25
 30
0.0
 11
-119.25
 21
-131.25
 31
0.0
  0
LINE
  5
1B2
  8
DATA
  6
CONTINUOUS
 62
     7
 10
-104.59999999999999
 20
-98.250000000000014
 30
0.0
 11
-88.90000000000002
 21
-98.250000000000014
 31
0.0
  0
LINE
  5
1B3
  8
DATA
  6
CONTINUOUS
 62
     7
 10
-109.40000000000001
 20
-125.25
 30
0.0
 11
-109.40000000000001
 21
-117.25
 31
0.0
  0
LINE
  5
1B4
  8
DATA
  6
CONTINUOUS
 62
     7
 10
-84.100000000000009
 20
-125.25
 30
0.0
 11
-84.100000000000009
 21
-117.25
 31
0.0
  0
LINE
  5
1B5
  8
DATA
  6
CONTINUOUS
 62
     7
 10
-108.75
 20
-131.25
 30
0.0
 11
-108.75
 21
-125.25
 31
0.0
  0
LINE
  5
1B6
  8
DATA
  6
CONTINUOUS
 62
     7
 10
-84.750000000000014
 20
-125.25
 30
0.0
 11
-84.750000000000014
 21
-131.25
 31
0.0
  0
LINE
  5
1B7
  8
DATA
  6
CONTINUOUS
 62
     7
 10
-108.75
 20
-129.75
 30
0.0
 11
-84.750000000000014
 21
-129.75
 31
0.0
  0
LINE
  5
1B8
  8
DATA
  6
CONTINUOUS
 62
     7
 10
-109.40000000000001
 20
-125.25
 30
0.0
 11
-84.100000000000009
 21
-125.25
 31
0.0
  0
LINE
  5
1B9
  8
DATA
  6
CONTINUOUS
 62
     7
 10
-108.75
 20
-114.75
 30
0.0
 11
-84.750000000000014
 21
-114.75
 31
0.0
  0
LINE
  5
1BA
  8
DATA
  6
CONTINUOUS
 62
     7
 10
-108.75
 20
-117.25
 30
0.0
 11
-108.75
 21
-114.75
 31
0.0
  0
LINE
  5
1BB
  8
DATA
  6
CONTINUOUS
 62
     7
 10
-84.750000000000014
 20
-117.25
 30
0.0
 11
-84.750000000000014
 21
-114.75
 31
0.0
  0
LINE
  5
1BC
  8
DATA
  6
CONTINUOUS
 62
     7
 10
-109.40000000000001
 20
-117.25
 30
0.0
 11
-84.100000000000009
 21
-117.25
 31
0.0
  0
LINE
  5
1BD
  8
DATA
  6
CONTINUOUS
 62
     7
 10
-106.0
 20
-114.75
 30
0.0
 11
-106.0
 21
-110.75
 31
0.0
  0
LINE
  5
1BE
  8
DATA
  6
CONTINUOUS
 62
     7
 10
-87.500000000000014
 20
-110.75
 30
0.0
 11
-87.500000000000014
 21
-114.75
 31
0.0
  0
LINE
  5
1BF
  8
DATA
  6
CONTINUOUS
 62
     7
 10
-106.0
 20
-110.75
 30
0.0
 11
-87.500000000000014
 21
-110.75
 31
0.0
  0
LINE
  5
1C0
  8
DATA
  6
CONTINUOUS
 62
     7
 10
-104.59999999999999
 20
-110.75
 30
0.0
 11
-104.59999999999999
 21
-98.250000000000014
 31
0.0
  0
LINE
  5
1C1
  8
DATA
  6
CONTINUOUS
 62
     7
 10
-88.90000000000002
 20
-98.250000000000014
 30
0.0
 11
-88.90000000000002
 21
-110.75
 31
0.0
  0
LINE
  5
1C2
  8
DATA
  6
CONTINUOUS
 62
     7
 10
-106.0
 20
-114.75
 30
0.0
 11
-87.500000000000014
 21
-113.65000000000001
 31
0.0
  0
LINE
  5
1C3
  8
DATA
  6
CONTINUOUS
 62
     7
 10
-106.0
 20
-113.75
 30
0.0
 11
-87.500000000000014
 21
-112.65000000000001
 31
0.0
  0
LINE
  5
1C4
  8
DATA
  6
CONTINUOUS
 62
     7
 10
-106.0
 20
-112.75
 30
0.0
 11
-87.500000000000014
 21
-111.65000000000001
 31
0.0
  0
LINE
  5
1C5
  8
DATA
  6
CONTINUOUS
 62
     7
 10
-106.0
 20
-111.75
 30
0.0
 11
-87.500000000000014
 21
-110.65000000000001
 31
0.0
  0
LINE
  5
1C6
  8
DATA
  6
CONTINUOUS
 62
     7
 10
-107.2
 20
-125.25
 30
0.0
 11
-107.2
 21
-117.25
 31
0.0
  0
LINE
  5
1C7
  8
DATA
  6
CONTINUOUS
 62
     7
 10
-105.0
 20
-125.25
 30
0.0
 11
-105.0
 21
-117.25
 31
0.0
  0
LINE
  5
1C8
  8
DATA
  6
CONTINUOUS
 62
     7
 10
-102.8
 20
-125.25
 30
0.0
 11
-102.8
 21
-117.25
 31
0.0
  0
LINE
  5
1C9
  8
DATA
  6
CONTINUOUS
 62
     7
 10
-100.59999999999999
 20
-125.25
 30
0.0
 11
-100.59999999999999
 21
-117.25
 31
0.0
  0
LINE
  5
1CA
  8
DATA
  6
CONTINUOUS
 62
     7
 10
-98.400000000000034
 20
-125.25
 30
0.0
 11
-98.400000000000034
 21
-117.25
 31
0.0
  0
LINE
  5
1CB
  8
DATA
  6
CONTINUOUS
 62
     7
 10
-96.200000000000045
 20
-125.25
 30
0.0
 11
-96.200000000000045
 21
-117.25
 31
0.0
  0
LINE
  5
1CC
  8
DATA
  6
CONTINUOUS
 62
     7
 10
-94.0
 20
-125.25
 30
0.0
 11
-94.0
 21
-117.25
 31
0.0
  0
LINE
  5
1CD
  8
DATA
  6
CONTINUOUS
 62
     7
 10
-91.800000000000026
 20
-125.25
 30
0.0
 11
-91.800000000000026
 21
-117.25
 31
0.0
  0
LINE
  5
1CE
  8
DATA
  6
CONTINUOUS
 62
     7
 10
-89.600000000000037
 20
-125.25
 30
0.0
 11
-89.600000000000037
 21
-117.25
 31
0.0
  0
LINE
  5
1CF
  8
DATA
  6
CONTINUOUS
 62
     7
 10
-87.400000000000006
 20
-125.25
 30
0.0
 11
-87.400000000000006
 21
-117.25
 31
0.0
  0
LINE
  5
1D0
  8
DATA
  6
CONTINUOUS
 62
     7
 10
-85.200000000000031
 20
-125.25
 30
0.0
 11
-85.200000000000031
 21
-117.25
 31
0.0
  0
LINE
  5
1D1
  8
DATA
  6
CONTINUOUS
 62
     7
 10
-98.390000000000001
 20
-110.75
 30
0.0
 11
-98.390000000000001
 21
-103.75
 31
0.0
  0
LINE
  5
1D2
  8
DATA
  6
CONTINUOUS
 62
     7
 10
-95.110000000000014
 20
-103.75
 30
0.0
 11
-95.110000000000014
 21
-110.75
 31
0.0
  0
LINE
  5
1D3
  8
DATA
  6
CONTINUOUS
 62
     7
 10
-98.390000000000001
 20
-103.75
 30
0.0
 11
-95.110000000000014
 21
-103.75
 31
0.0
  0
LINE
  5
1D4
  8
DATA
  6
CONTINUOUS
 62
     7
 10
-92.600000000000037
 20
-110.75
 30
0.0
 11
-92.600000000000037
 21
-98.250000000000014
 31
0.0
  0
LINE
  5
1D5
  8
DATA
  6
CONTINUOUS
 62
     7
 10
-91.98218271227158
 20
-110.75
 30
0.0
 11
-91.98218271227158
 21
-98.250000000000014
 31
0.0
  0
LINE
  5
1D6
  8
DATA
  6
CONTINUOUS
 62
     7
 10
-106.25
 20
-135.44999999999999
 30
0.0
 11
-87.250000000000014
 21
-135.44999999999999
 31
0.0
  0
LINE
  5
1D7
  8
DATA
  6
CONTINUOUS
 62
     7
 10
-96.75
 20
-135.44999999999999
 30
0.0
 11
-96.75
 21
-133.25
 31
0.0
  0
LINE
  5
1D8
  8
DATA
  6
CONTINUOUS
 62
     7
 10
-106.25
 20
-135.44999999999999
 30
0.0
 11
-105.8429084258552
 21
-145.8715442981082
 31
0.0
  0
LINE
  5
1D9
  8
DATA
  6
CONTINUOUS
 62
     7
 10
-87.250000000000014
 20
-135.44999999999999
 30
0.0
 11
-87.657091574144815
 21
-145.87154429810801
 31
0.0
  0
LINE
  5
1DA
  8
DATA
  6
CONTINUOUS
 62
     7
 10
-101.65000000000001
 20
-168.75
 30
0.0
 11
-105.2831907199914
 21
-150.58404640004301
 31
0.0
  0
LINE
  5
1DB
  8
DATA
  6
CONTINUOUS
 62
     7
 10
-91.850000000000023
 20
-168.75
 30
0.0
 11
-88.216809280008619
 21
-150.58404640004301
 31
0.0
  0
LINE
  5
1DC
  8
DATA
  6
CONTINUOUS
 62
     7
 10
-105.6550553070719
 20
-148.25
 30
0.0
 11
-87.844944692927996
 21
-148.25
 31
0.0
  0
LINE
  5
1DD
  8
DATA
  6
CONTINUOUS
 62
     7
 10
-105.19
 20
-151.05000000000001
 30
0.0
 11
-88.310000000000016
 21
-151.05000000000001
 31
0.0
  0
LINE
  5
1DE
  8
DATA
  6
CONTINUOUS
 62
     7
 10
-104.79000000000001
 20
-153.05000000000001
 30
0.0
 11
-88.70999999999998
 21
-153.05000000000001
 31
0.0
  0
LINE
  5
1DF
  8
DATA
  6
CONTINUOUS
 62
     7
 10
-104.39
 20
-155.05000000000001
 30
0.0
 11
-89.109999999999985
 21
-155.05000000000001
 31
0.0
  0
LINE
  5
1E0
  8
DATA
  6
CONTINUOUS
 62
     7
 10
-103.98999999999999
 20
-157.05000000000001
 30
0.0
 11
-89.510000000000005
 21
-157.05000000000001
 31
0.0
  0
LINE
  5
1E1
  8
DATA
  6
CONTINUOUS
 62
     7
 10
-103.59
 20
-159.05000000000001
 30
0.0
 11
-89.910000000000025
 21
-159.05000000000001
 31
0.0
  0
LINE
  5
1E2
  8
DATA
  6
CONTINUOUS
 62
     7
 10
-103.19
 20
-161.05000000000001
 30
0.0
 11
-90.310000000000002
 21
-161.05000000000001
 31
0.0
  0
ARC
  5
1E3
  8
DATA
  6
CONTINUOUS
 62
     7
 10
-75.865770449263806
 20
-144.70056234589759
 30
0.0
 40
30.000000000000011
 50
182.2369790634377
 51
191.30993247402009
  0
ARC
  5
1E4
  8
DATA
  6
CONTINUOUS
 62
     7
 10
-117.63422955073619
 20
-144.70056234589711
 30
0.0
 40
30.000000000000039
 50
348.69006752597909
 51
357.76302093656159
  0
LINE
  5
1E5
  8
DATA
  6
CONTINUOUS
 62
     7
 10
-101.65000000000001
 20
-168.75
 30
0.0
 11
-91.850000000000023
 21
-168.75
 31
0.0
  0
LINE
  5
1E6
  8
DATA
  6
CONTINUOUS
 62
     7
 10
-107.75
 20
-135.44999999999999
 30
0.0
 11
-85.750000000000014
 21
-135.44999999999999
 31
0.0
  0
LINE
  5
1E7
  8
DATA
  6
CONTINUOUS
 62
     7
 10
-107.75
 20
-135.44999999999999
 30
0.0
 11
-107.75
 21
-133.25
 31
0.0
  0
LINE
  5
1E8
  8
DATA
  6
CONTINUOUS
 62
     7
 10
-85.750000000000014
 20
-135.44999999999999
 30
0.0
 11
-85.750000000000014
 21
-133.25
 31
0.0
  0
TEXT
  5
1E9
  8
DATA
 62
     7
 10
-138.5852644008892
 20
-302.86041215318028
 30
0.0
 40
10.85894097222222
  1
PS 3 F-LOCL
 41
0.7
 11
-138.5852644008892
 21
-292.00147118095811
 31
0.0
 73
     3
  0
CIRCLE
  5
1EA
  8
DATA
  6
CONTINUOUS
 62
     7
 10
-96.75
 20
-262.7854641524824
 30
0.0
 40
1.2849999999999959
  0
CIRCLE
  5
1EB
  8
DATA
  6
CONTINUOUS
 62
     7
 10
-100.6264140727682
 20
-260.34842577220547
 30
0.0
 40
1.2849999999999959
  0
CIRCLE
  5
1EC
  8
DATA
  6
CONTINUOUS
 62
     7
 10
-92.873585927231787
 20
-260.34842577220547
 30
0.0
 40
1.2849999999999959
  0
ARC
  5
1ED
  8
DATA
  6
CONTINUOUS
 62
     7
 10
-101.6999999999998
 20
-252.6131276518588
 30
0.0
 40
1.13137084989853
 50
40.107835965612971
 51
219.17516296021969
  0
LINE
  5
1EE
  8
DATA
  6
CONTINUOUS
 62
     7
 10
-106.25
 20
-6.25
 30
0.0
 11
-87.250000000000014
 21
-6.25
 31
0.0
  0
LINE
  5
1EF
  8
DATA
  6
CONTINUOUS
 62
     7
 10
-103.2505384813782
 20
388.65444501759191
 30
0.0
 11
-103.75
 21
398.75
 31
0.0
  0
LINE
  5
1F0
  8
DATA
  6
CONTINUOUS
 62
     7
 10
-90.249461518621814
 20
388.65444501759191
 30
0.0
 11
-89.750000000000014
 21
398.75
 31
0.0
  0
LINE
  5
1F1
  8
DATA
  6
CONTINUOUS
 62
     7
 10
9.3436322738198907
 20
190.80087332688831
 30
0.0
 11
19.43918725622795
 21
190.30141180826649
 31
0.0
  0
LINE
  5
1F2
  8
DATA
  6
CONTINUOUS
 62
     7
 10
9.3436322738198907
 20
176.80087332688831
 30
0.0
 11
19.43918725622795
 21
177.30033484551009
 31
0.0
  0
LINE
  5
1F3
  8
DATA
  6
CONTINUOUS
 62
     7
 10
258.75
 20
330.75
 30
0.0
 11
268.84555498240809
 21
330.25053848137821
 31
0.0
  0
LINE
  5
1F4
  8
DATA
  6
CONTINUOUS
 62
     7
 10
258.75
 20
316.75
 30
0.0
 11
268.84555498240809
 21
317.24946151862179
 31
0.0
  0
TEXT
  5
1F5
  8
DATA
 62
     7
 10
112.79308729561509
 20
-214.55375258409649
 30
0.0
 40
10.85894097222222
  1
取付け寸法図
 41
0.7
 11
112.79308729561509
 21
-203.69481161187429
 31
0.0
 73
     3
  0
CIRCLE
  5
1F6
  8
DATA
  6
CONTINUOUS
 62
     7
 10
218.75
 20
-143.75
 30
0.0
 40
22.5
  0
CIRCLE
  5
1F7
  8
DATA
  6
CONTINUOUS
 62
     7
 10
218.75
 20
-126.05
 30
0.0
 40
1.5999999999999941
  0
CIRCLE
  5
1F8
  8
DATA
  6
CONTINUOUS
 62
     7
 10
203.42135035301561
 20
-152.5999999999998
 30
0.0
 40
1.5999999999999941
  0
CIRCLE
  5
1F9
  8
DATA
  6
CONTINUOUS
 62
     7
 10
234.07864964698439
 20
-152.59999999999991
 30
0.0
 40
1.5999999999999941
  0
POLYLINE
  5
1FA
  8
DATA
  6
CONTINUOUS
 62
     7
 66
     1
 10
0.0
 20
0.0
 30
0.0
 70
     1
  0
VERTEX
  5
2AE
  8
DATA
  6
CONTINUOUS
 62
     7
 10
218.75
 20
-132.75
 30
0.0
  0
VERTEX
  5
2AF
  8
DATA
  6
CONTINUOUS
 62
     7
 10
209.22372055837121
 20
-138.25
 30
0.0
  0
VERTEX
  5
2B0
  8
DATA
  6
CONTINUOUS
 62
     7
 10
209.22372055837121
 20
-149.25
 30
0.0
  0
VERTEX
  5
2B1
  8
DATA
  6
CONTINUOUS
 62
     7
 10
218.75
 20
-154.75
 30
0.0
  0
VERTEX
  5
2B2
  8
DATA
  6
CONTINUOUS
 62
     7
 10
228.27627944162879
 20
-149.25
 30
0.0
  0
VERTEX
  5
2B3
  8
DATA
  6
CONTINUOUS
 62
     7
 10
228.27627944162879
 20
-138.25
 30
0.0
  0
SEQEND
  5
2B4
  8
DATA
  6
CONTINUOUS
 62
     7
  0
CIRCLE
  5
203
  8
DATA
  6
CONTINUOUS
 62
     7
 10
218.75
 20
-143.75
 30
0.0
 40
9.4022603665288838
  0
CIRCLE
  5
204
  8
DATA
  6
STYLE_06
 62
     7
 10
218.75
 20
-143.75
 30
0.0
 40
18.0
  0
CIRCLE
  5
205
  8
DATA
  6
CONTINUOUS
 62
     7
 10
218.75
 20
-143.75
 30
0.0
 40
4.6999999999999877
  0
CIRCLE
  5
206
  8
DATA
  6
CONTINUOUS
 62
     7
 10
218.75
 20
-143.75
 30
0.0
 40
1.5
  0
LINE
  5
207
  8
DATA
  6
CONTINUOUS
 62
     7
 10
106.25
 20
-218.75
 30
0.0
 11
206.25
 21
-218.75
 31
0.0
  0
LINE
  5
208
  8
DATA
  6
CONTINUOUS
 62
     7
 10
-143.75
 20
-306.25
 30
0.0
 11
-56.250000000000021
 21
-306.25
 31
0.0
  0
ENDSEC
  0
EOF
